Oops, an error
Loading. Please wait.

The Few That Remain Tab

ver2
ver2

Intro

Whole song

Interactive

More versions @911Tabs.com
481 views 1 this week
no commentswrite comment
1 2 3 4 5
please rate
Autoscroll
+/-
esc
set tempo
stop
Contributor
Tuning
D A D G B E
WARNING: You are trying to view
                                    content from Ultimate-Guitar.com
                                    in an unauthorized application,
                                    which is prohibited.

                                    Please use an official Ultimate
                                    Guitar Tabs application for iPhone,
                                    iPad or Android to access legitimate
                                    chords, guitar, bass, and drum tabs
                                    from Ultimate-Guitar.com database.

                                    Type "ultimate guitar tabs" in Apple
                                    App Store's or Android Market's
                                    search to find the application.
A lead part that I tried to make out is included. It isn't 100% but it's something to 
get you going if you can't hear it.
Tuning: Drop D


Guitar 1:


~Intro~
e|--------------------------------------------------------------------|
B|--------------------------------------------------------------------|
G|-3-5-5-5-8-8-5-5-3-3-8-8------------5-5-5-8-8-5-5-----8-8-----------|
D|-3-5-5-5-8-8-5-5-3-3-8-8-6-8-8-8-8--5-5-5-8-8-5-5-6-6-8-8-6-8-8-8-8-|
A|-1-3-3-3-6-6-3-3-1-1-6-6-6-8-8-8-8--3-3-3-6-6-3-3-6-6-6-6-6-8-8-8-8-|
D|-------------------------6-8-8-8-8----------------6-6-----6-8-8-8-8-|
       * * * * * * * * * * * * * * *  * * * * * * * * * * * * * * * *

e|--------------------------------------------------------------------|
B|--------------------------------------------------------------------|
G|-3-5-5-5-8-8-5-5-3-3-8-8------------5-5-5-8-8-5-5-----8-8-----------|
D|-3-5-5-5-8-8-5-5-3-3-8-8-6-8-8-8-8--5-5-5-8-8-5-5-6-6-8-8-6-8-8-----|
A|-1-3-3-3-6-6-3-3-1-1-6-6-6-8-8-8-8--3-3-3-6-6-3-3-6-6-6-6-6-8-8-----|
D|-------------------------6-8-8-8-8----------------6-6-----6-8-8-----|
           * * * * * * * * * * * * *  * * * * * * * * * * * * * *

e|--------------------------------------------------------------------|
B|--------------------------------------------------------------------|
G|-5-5-5-8-8-5-5-3-3-8-8------------5-5-5-8-8-5-5-----8-8-------------|
D|-5-5-5-8-8-5-5-3-3-8-8-6-8-8-8-8--5-5-5-8-8-5-5-6-6-8-8-6-8-8-8-8---|
A|-3-3-3-6-6-3-3-1-1-6-6-6-8-8-8-8--3-3-3-6-6-3-3-6-6-6-6-6-8-8-8-8---|
D|-----------------------6-8-8-8-8----------------6-6-----6-8-8-8-8---|


e|--------------------------------------------------------------------|
B|--------------------------------------------------------------------|
G|-5-5-5-8-8-5-5-3-3-8-8------------5-5-5-8-8-5-5-----8-8-------------|
D|-5-5-5-8-8-5-5-3-3-8-8-6-8-8-8-8--5-5-5-8-8-5-5-6-6-8-8-6-8-8-8-8---|
A|-3-3-3-6-6-3-3-1-1-6-6-6-8-8-8-8--3-3-3-6-6-3-3-6-6-6-6-6-8-8-8-8---|
D|-----------------------6-8-8-8-8----------------6-6-----6-8-8-8-8---|
                                                            * * * *




~Verse~ (x2)
e|--------------------------------------------------------------------|
B|--------------------------------------------------------------------|
G|-5-5-5-8-8-5-5-3-3-8-8------------5-5-5-8-8-5-5-----8-8-------------|
D|-5-5-5-8-8-5-5-3-3-8-8-6-8-8-8-8--5-5-5-8-8-5-5-6-6-8-8-6-8-8-8-8---|
A|-3-3-3-6-6-3-3-1-1-6-6-6-8-8-8-8--3-3-3-6-6-3-3-6-6-6-6-6-8-8-8-8---|
D|-----------------------6-8-8-8-8----------------6-6-----6-8-8-8-8---|
   * * * * * * * * * * * * * * * *  * * * * * * * * * * * * * * * *

e|--------------------------------------------------------------------|
B|--------------------------------------------------------------------|
G|-5-5-5-8-8-5-5-3-3-8-8------------5-5-5-8-8-5-5-----8-8-------------|
D|-5-5-5-8-8-5-5-3-3-8-8-6-8-8-8-8--5-5-5-8-8-5-5-6-6-8-8-6-8-8-8-8---|
A|-3-3-3-6-6-3-3-1-1-6-6-6-8-8-8-8--3-3-3-6-6-3-3-6-6-6-6-6-8-8-8-8---|
D|-----------------------6-8-8-8-8----------------6-6-----6-8-8-8-8---|
   * * * * * * * * * * * * * * * *  * * * * * * * * * * * * * * * *

e|--------------------------------------------------------------------|
B|--------------------------------------------------------------------|
G|-5-5-5-8-8-5-5-3-3-8-8------------5-5-5-8-8-5-5-----8-8-------------|
D|-5-5-5-8-8-5-5-3-3-8-8-6-8-8-8-8--5-5-5-8-8-5-5-6-6-8-8-6-8-8-8-8---|
A|-3-3-3-6-6-3-3-1-1-6-6-6-8-8-8-8--3-3-3-6-6-3-3-6-6-6-6-6-8-8-8-8---|
D|-----------------------6-8-8-8-8----------------6-6-----6-8-8-8-8---|




~Chorus~
e|-------------------------------------------------------------------------|
B|-------------------------------------------------------------------------|
G|-5-XXXX-5--5-5-5-8-XXXX-8--8-8-8-----------------10-10-10-10-10-10-10-10-|
D|-5-XXXX-5--5-5-5-8-XXXX-8--8-8-8-8-8-8-8-8-8-8-8-10-10—10-10-10-10-10-10-|
A|-3-XXXX-3--3-3-3-6-XXXX-6--6-6-6-8-8-8-8-8-8-8-8-8--8--8--8--8--8--8--8--|
D|---------------------------------8-8-8-8-8-8-8-8-------------------------|

e|-------------------------------------------------------------------------|
B|-------------------------------------------------------------------------|
G|-5-XXXX-5--5-5-5-8-XXXX-8--8-8-8-----------------------------------------|
D|-5-XXXX-5--5-5-5-8-XXXX-8--8-8-8-8-8-8-8-8-8-8-8-6-6-6-6-6-6-6-6---------|
A|-3-XXXX-3--3-3-3-6-XXXX-6--6-6-6-8-8-8-8-8-8-8-8-6-6-6-6-6-6-6-6---------|
D|---------------------------------8-8-8-8-8-8-8-8-6-6-6-6-6-6-6-6---------|




~Post Chorus~
e|-------------------|
B|-------------------|
G|-----------------3-|
D|-10\--8--8--10\--3-|
A|-10\--8--8--10\--1-|
D|-10\--8--8--10\----|




~Verse 2~
e|----------------------------------------------------------------|
B|----------------------------------------------------------------|
G|----------------------------------------------------------------|
D|----------------------------------------------------------------|
A|-3-3-3-6-6-3-3-1-1-6-6-----------3-3-3-6-6-3-3-----6-6----------|
D|-----------------------6-8-8-8-8---------------6-6-----6-8-8-8--|

e|----------------------------------------------------------------|
B|----------------------------------------------------------------|
G|----------------------------------------------------------------|
D|----------------------------------------------------------------|
A|-3-3-3-6-6-3-3-1-1-6-6-----------3-3-3-6-6-3-3-----6-6----------|
D|-----------------------6-8-8-8-8---------------6-6-----6-8-8-8--|




~Bridge~
e|------------------------------------------------------------------------|
B|------------------------------------------------------------------------|
G|-3-3--5-5-5-5---5-5-5---5-5-5-5\3-3-3---5-5-5-5---5-5-5---5-5-5-5\3-3-3-|
D|-3-3--5-5-5-5---5-5-5---5-5-5-5\3-3-3---5-5-5-5---5-5-5---5-5-5-5\3-3-3-|
A|-1-1--3-3-3-3---3-3-3---3-3-3-3\1-1-1---3-3-3-3---3-3-3---3-3-3-3\1-1-1-|
D|------------------------------------------------------------------------|
          * * *     * *     * *           * * * *   * * *   * * *

e|------------------------------------------------------------------------|
B|------------------------------------------------------------------------|
G|-5-5-5-5---5-5-5---5-5-5-5\3-3-3---5-5-5-5---5-5-5---5-5-5-5\3-3-3------|
D|-5-5-5-5---5-5-5---5-5-5-5\3-3-3---5-5-5-5---5-5-5---5-5-5-5\3-3-3------|
A|-3-3-3-3---3-3-3---3-3-3-3\1-1-1---3-3-3-3---3-3-3---3-3-3-3\1-1-1------|
D|------------------------------------------------------------------------|
     * * *     * *     * *           * * * *   * * *   * * *

e|------------------------------------------------------------------------|
B|------------------------------------------------------------------------|
G|----------------------------------5-5-5-8-8-5-5-----8-8-----------------|
D|----------------------------------5-5-5-8-8-5-5-6-6-8-8-6-8-8-8-8-------|
A|-3-3-3-6-6-3-3-1-1-6-6------------3-3-3-6-6-3-3-6-6-6-6-6-8-8-8-8-------|
D|-----------------------6-8-8-8-8----------------6-6-----6-8-8-8-8-------|


~Chorus~
e|-------------------------------------------------------------------------|
B|-------------------------------------------------------------------------|
G|-5-XXXX-5--5-5-5-8-XXXX-8--8-8-8-----------------10-10-10-10-10-10-10-10-|
D|-5-XXXX-5--5-5-5-8-XXXX-8--8-8-8-8-8-8-8-8-8-8-8-10-10—10-10-10-10-10-10-|
A|-3-XXXX-3--3-3-3-6-XXXX-6--6-6-6-8-8-8-8-8-8-8-8-8--8--8--8--8--8--8--8--|
D|---------------------------------8-8-8-8-8-8-8-8-------------------------|

e|-------------------------------------------------------------------------|
B|-------------------------------------------------------------------------|
G|-5-XXXX-5--5-5-5-8-XXXX-8--8-8-8-----------------------------------------|
D|-5-XXXX-5--5-5-5-8-XXXX-8--8-8-8-8-8-8-8-8-8-8-8-6-6-6-6-6-6-6-6---------|
A|-3-XXXX-3--3-3-3-6-XXXX-6--6-6-6-8-8-8-8-8-8-8-8-6-6-6-6-6-6-6-6---------|
D|---------------------------------8-8-8-8-8-8-8-8-6-6-6-6-6-6-6-6---------|
                          (Played 3 times)




~Breakdown~
e|-------------------------------------------------------------------|
B|-------------------------------------------------------------------|
G|-8-8-8-8-8-8-8-8-8-8-8-8-8-8-8-8-8---------------------------------|
D|-8-8-8-8-8-8-8-8-8-8-8-8-8-8-8-8-8-8-8-8-8-8-8-8-8-8-8-8-8-8-8-8-8-|
A|-6-6-6-6-6-6-6-6-6-6-6-6-6-6-6-6-6-8-8-8-8-8-8-8-8-8-8-8-8-8-8-8-8-|
D|-----------------------------------8-8-8-8-8-8-8-8-8-8-8-8-8-8-8-8-|

e|-------------------------------------------------------------------|
B|-------------------------------------------------------------------|
G|-------------------------------------------------------------------|
D|-10--10-10--10--10-10--10-10--6--6-6-6-6-6-6-6---------------------|
A|-10--10-10--10--10-10--10-10--6--6-6-6-6-6-6-6---------------------|
D|-10--10-10--10--10-10--10-10--6--6-6-6-6-6-6-6---------------------|
       *  *       *  *

e|-------------------------------------------------------------------|
B|-------------------------------------------------------------------|
G|-8-8-8-8-8-8-8-8-8-8-8-8-8-8-8-8-8---------------------------------|
D|-8-8-8-8-8-8-8-8-8-8-8-8-8-8-8-8-8-8-8-8-8-8-8-8-8-8-8-8-8-8-8-8-8-|
A|-6-6-6-6-6-6-6-6-6-6-6-6-6-6-6-6-6-8-8-8-8-8-8-8-8-8-8-8-8-8-8-8-8-|
D|-----------------------------------8-8-8-8-8-8-8-8-8-8-8-8-8-8-8-8-|


e|-------------------------------------------------------------------|
B|-------------------------------------------------------------------|
G|-------------------------------------------------------------------|
D|-33333-33-6-1-11-3-333-33-6-1-11-3---------------------------------|
A|-33333-33-6-1-11-3-333-33-6-1-11-3---------------------------------|
D|-33333-33-6-1-11-3-333-33-6-1-11-3---------------------------------|
   ***** ** * * ** * *** ** * * ** *


e|-------------------------------------------------------------------|
B|-------------------------------------------------------------------|
G|-------------------------------------------------------------------|
D|-33333-33-6-1-11-3-333-33-6-1-1-1----------------------------------|
A|-33333-33-6-1-11-3-333-33-6-1-1-1----------------------------------|
D|-33333-33-6-1-11-3-333-33-6-1-1-1----------------------------------|
   ***** ** * * ** * *** ** * * * *




~Outro~
e|--------------------------------------------------------------------|
B|--------------------------------------------------------------------|
G|-5-5-5-8-8-5-5-3-3-8-8------------5-5-5-8-8-5-5-----8-8-------------|
D|-5-5-5-8-8-5-5-3-3-8-8-6-8-8-8-8--5-5-5-8-8-5-5-6-6-8-8-6-8-8-8-8---|
A|-3-3-3-6-6-3-3-1-1-6-6-6-8-8-8-8--3-3-3-6-6-3-3-6-6-6-6-6-8-8-8-8---|
D|-----------------------6-8-8-8-8----------------6-6-----6-8-8-8-8---|

e|--------------------------------------------------------------------|
B|--------------------------------------------------------------------|
G|-5-5-5-8-8-5-5-3-3-8-8------------5-5-5-8-8-5-5-----8-8-------------|
D|-5-5-5-8-8-5-5-3-3-8-8-6-8-8-8-8--5-5-5-8-8-5-5-6-6-8-8-6-8-8-8-8---|
A|-3-3-3-6-6-3-3-1-1-6-6-6-8-8-8-8--3-3-3-6-6-3-3-6-6-6-6-6-8-8-8-8---|
D|-----------------------6-8-8-8-8----------------6-6-----6-8-8-8-8---|

e|--------------------------------------------------------------------|
B|--------------------------------------------------------------------|
G|-3-5-5-5-8-8-5-5-3-3-8-8------------5-5-5-8-8-5-5-----8-8-----------|
D|-3-5-5-5-8-8-5-5-3-3-8-8-6-8-8-8-8--5-5-5-8-8-5-5-6-6-8-8-6-8-8-8-8-|
A|-1-3-3-3-6-6-3-3-1-1-6-6-6-8-8-8-8--3-3-3-6-6-3-3-6-6-6-6-6-8-8-8-8-|
D|-------------------------6-8-8-8-8----------------6-6-----6-8-8-8-8-|
       * * * * * * * * * * * * * * *  * * * * * * * * * * * * * * * *

e|--------------------------------------------------------------------|
B|--------------------------------------------------------------------|
G|-3-5-5-5-8-8-5-5-3-3-8-8------------5-5-5-8-8-5-5-----8-8-----------|
D|-3-5-5-5-8-8-5-5-3-3-8-8-6-8-8-8-8--5-5-5-8-8-5-5-6-6-8-8-6-8-8-----|
A|-1-3-3-3-6-6-3-3-1-1-6-6-6-8-8-8-8--3-3-3-6-6-3-3-6-6-6-6-6-8-8-----|
D|-------------------------6-8-8-8-8----------------6-6-----6-8-8-----|
           * * * * * * * * * * * * *    * *     * *   *   *

e|--------------------------------------------------------------------|
B|--------------------------------------------------------------------|
G|-5-5-5-8-8-5-5-3-3-8-8------------5-5-5-8-8-5-5-----8-8-------------|
D|-5-5-5-8-8-5-5-3-3-8-8-6-8-8-8-8--5-5-5-8-8-5-5-6-6-8-8-6-8-8-8-8---|
A|-3-3-3-6-6-3-3-1-1-6-6-6-8-8-8-8--3-3-3-6-6-3-3-6-6-6-6-6-8-8-8-8---|
D|-----------------------6-8-8-8-8----------------6-6-----6-8-8-8-8---|

e|--------------------------------------------------------------------|
B|----------------------------------................................--|
G|-5-5-5-8-8-5-5-3-3-8-8-----------/Yeah, so for this part I kinda--\-|
D|-5-5-5-8-8-5-5-3-3-8-8-6-8-8-8-8-\couldn't get the last few chords/-|
A|-3-3-3-6-6-3-3-1-1-6-6-6-8-8-8-8--````````````````````````````````--|
D|-----------------------6-8-8-8-8------------------------------------|




Guitar 2:

~Intro~
(Comes in with a Pick slide)

(x2)
e|--------------------------------------|
B|--------------------------------------|
G|-8-8-8-12-12-8-8-7-7-12-12-8-7-7-7-7--|
D|--------------------------------------|
A|--------------------------------------|
D|--------------------------------------|




~Verse~ (x2)
(x2)
e|-----------------------------------------------------------|
B|-----------------------------------------------------------|
G|-8-8-8-12-12-8-8-7-7-12-12-8-7-7-7-7-----------------------|
D|-----------------------------------------------------------|
A|-----------------------------------------------------------|
D|-----------------------------------------------------------|

e|-----------------------------------------------------------|
B|-----------------------------------------------------------|
G|-5-5-5--5-5-5--5-5-5--3-3-3--5-5-5--5-5-5--5-5-5--7-7-8-8--|
D|-----------------------------------------------------------|
A|-----------------------------------------------------------|
D|-----------------------------------------------------------|

e|-----------------------------------------------------------|
B|-----------------------------------------------------------|
G|-5-5-5--5-5-5--5-5-5--3-3-3--5-5-5--5-5-5--5-5/7-7/8-8-8---|
D|-----------------------------------------------------------|
A|-----------------------------------------------------------|
D|-----------------------------------------------------------|

(x2)
e|-----------------------------------------------------------|
B|-----------------------------------------------------------|
G|-8-8-8-12-12-8-8-7-7-12-12-8-7-7-7-7-----------------------|
D|-----------------------------------------------------------|
A|-----------------------------------------------------------|
D|-----------------------------------------------------------|




~Chorus~
e|------------------------18-------------------16-----------|
B|---------------16-18-16----16-18-16-16-18-16----16-18-16--|
G|-5-5-5--3-3-8---------------------------------------------|
D|-x-x-x--x-x-x---------------------------------------------|
A|-3-3-3--1-1-6---------------------------------------------|
D|----------------------------------------------------------|

e|------------------------18-------------------18-----------|
B|---------------16-18-16----16-18-16-16-18-16----16-18-16--|
G|-5-5-5--3-3-8---------------------------------------------|
D|-x-x-x--x-x-x---------------------------------------------|
A|-3-3-3--1-1-6---------------------------------------------|
D|----------------------------------------------------------|




~Post Chorus~
(x2)
e|--------------------------------------|
B|--------------------------------------|
G|-8-8-8-12-12-8-8-7-7-12-12-8-7-7-7-7--|
D|--------------------------------------|
A|--------------------------------------|
D|--------------------------------------|




~Verse 2~
e|----------------------------------------------------------------|
B|----------------------------------------------------------------|
G|----------------------------------------------------------------|
D|----------------------------------------------------------------|
A|-3-3-3-6-6-3-3-1-1-6-6-----------3-3-3-6-6-3-3-----6-6----------|
D|-----------------------6-8-8-8-8---------------6-6-----6-8-8-8--|

e|----------------------------------------------------------------|
B|----------------------------------------------------------------|
G|----------------------------------------------------------------|
D|----------------------------------------------------------------|
A|-3-3-3-6-6-3-3-1-1-6-6-----------3-3-3-6-6-3-3-----6-6----------|
D|-----------------------6-8-8-8-8---------------6-6-----6-8-8-8--|




~Bridge~
(x4)
e|--------------------------------------|
B|--------------------------------------|
G|-5-5-5-5--5-5-5--5-5-5-5-3-3-3--------|
D|--------------------------------------|
A|--------------------------------------|
D|--------------------------------------|


(x2)
e|--------------------------------------|
B|--------------------------------------|
G|-8-8-8-12-12-8-8-7-7-12-12-8-7-7-7-7--|
D|--------------------------------------|
A|--------------------------------------|
D|--------------------------------------|




~Chorus~
e|------------------------18-------------------16-----------|
B|---------------16-18-16----16-18-16-16-18-16----16-18-16--|
G|-5-5-5--3-3-8---------------------------------------------|
D|-x-x-x--x-x-x---------------------------------------------|
A|-3-3-3--1-1-6---------------------------------------------|
D|----------------------------------------------------------|

e|------------------------18-------------------18-----------|
B|---------------16-18-16----16-18-16-16-18-16----16-18-16--|
G|-5-5-5--3-3-8---------------------------------------------|
D|-x-x-x--x-x-x---------------------------------------------|
A|-3-3-3--1-1-6---------------------------------------------|
D|----------------------------------------------------------|

e|----------18-------------------18-------------------------|
B|-16-18-16----16-18-16-16-18-16----16-18-16----------------|
G|----------------------------------------------------------|
D|----------------------------------------------------------|
A|----------------------------------------------------------|
D|----------------------------------------------------------|

e|----------18-------------------16-------------------------|
B|-16-18-16----16-18-16-16-18-16----16-18-16----------------|
G|----------------------------------------------------------|
D|----------------------------------------------------------|
A|----------------------------------------------------------|
D|----------------------------------------------------------|

(x2)
e|----------18-------------------18-------------------------|
B|-16-18-16----16-18-16-16-18-16----16-18-16----------------|
G|----------------------------------------------------------|
D|----------------------------------------------------------|
A|----------------------------------------------------------|
D|----------------------------------------------------------|




~Breakdown~
e|----------------------------------------------------------------------|
B|----------------------------------------------------------------------|
G|-8-8-8-8-8-8-8-8-8-8-8-8-12-12-12-12-7-7-7-7-7-7-7-7-7-7-7-7-7-7-7-7--|
D|----------------------------------------------------------------------|
A|----------------------------------------------------------------------|
D|----------------------------------------------------------------------|

e|----------------------------------------------------------------------|
B|----------------------------------------------------------------------|
G|----------------------------------------------------------------------|
D|-10--10-10--10--10-10--10-10--6--6-6-6-6-6-6-6------------------------|
A|-10--10-10--10--10-10--10-10--6--6-6-6-6-6-6-6------------------------|
D|-10--10-10--10--10-10--10-10--6--6-6-6-6-6-6-6------------------------|
       *  *       *  *

e|----------------------------------------------------------------------|
B|----------------------------------------------------------------------|
G|-8-8-8-8-8-8-8-8-8-8-8-8-12-12-12-12-7-7-7-7-7-7-7-7-7-7-7-7-7-7-7-7--|
D|----------------------------------------------------------------------|
A|----------------------------------------------------------------------|
D|----------------------------------------------------------------------|


e|-----------------------------------|
B|-----------------------------------|
G|-----------------------------------|
D|-33333-33-6-1-11-3-333-33-6-1-11-3-|
A|-33333-33-6-1-11-3-333-33-6-1-11-3-|
D|-33333-33-6-1-11-3-333-33-6-1-11-3-|
   ***** ** * * ** * *** ** * * ** *


e|-----------------------------------|
B|-----------------------------------|
G|-----------------------------------|
D|-33333-33-6-1-11-3-333-33-6-1-1-1--|
A|-33333-33-6-1-11-3-333-33-6-1-1-1--|
D|-33333-33-6-1-11-3-333-33-6-1-1-1--|
   ***** ** * * ** * *** ** * * * *




~Outro~
(Starts this part with a pick slide)

(x4)
e|--------------------------------------|
B|--------------------------------------|
G|-8-8-8-12-12-8-8-7-7-12-12-8-7-7-7-7--|
D|--------------------------------------|
A|--------------------------------------|
D|--------------------------------------|


Well, thanks for taking a look at this one :)
comments
We did not receive enough feedback on this tab! Please rate:
print report bad tab
1 2 3 4 5
I want to post or [tab]
guest
You may want to rate the tab now too:
select rating
Please do not post tabs as comments. Select "correction" instead!