Oops, an error
Loading. Please wait.

Never Mind The Bollocks Heres The Sex Pistols Bass Tab

8,073 views 9 this week
10 commentsread comments
1 2 3 4 5
excellent!
x 4
add to favorites launch autoscroll
font size
0
reset
Autoscroll
+/-
esc
set tempo
stop
WARNING: You are trying to view
                                    content from Ultimate-Guitar.com
                                    in an unauthorized application,
                                    which is prohibited.

                                    Please use an official Ultimate
                                    Guitar Tabs application for iPhone,
                                    iPad or Android to access legitimate
                                    chords, guitar, bass, and drum tabs
                                    from Ultimate-Guitar.com database.

                                    Type "ultimate guitar tabs" in Apple
                                    App Store's or Android Market's
                                    search to find the application.
HOLIDAY IN THE SUN - Sex Pistols
Intro:
G|--------------------------------------------------------------------------|
D|--------------------------------------------------------------------------|
A|--------------------------------------------------------------------------|
E|-10-----10-----10-----10--------------------------------------------------|

Intro2: X4  (Last Time, Let Last Note Ring)
G|--------------------------------------------------------------------------|
D|--------------------------------------------------------------------------|
A|--------------------------------------------------------------------------|
E|-8-8-7-7-5-5-5-3-3-3-3-3-3-3-3--------------------------------------------|

Verse: X4
G|--------------------------------------------------------------------------|
D|--------------------------------------------------------------------------|
A|--------------------------------------------------------------------------|
E|-3-3-3-3-3-3-3-3-3-3--3-3-5-7-8-7-3---------------------------------------|

Pre Chorus: X2
G|--------------------------------------------------------------------------|
D|-----------------------------------0-0-0-0-0-0-0-0-0-0-0-0-0-0-0-0--------|
A|-3-3-3-3-3-3-3-3-3-3-3-3-3-3-3-3------------------------------------------|
E|--------------------------------------------------------------------------|

Chorus: X4
G|--------------------------------------------------------------------------|
D|--------------------------------------------------------------------------|
A|-The-Berlin--Wall!--------------------------------------------------------|
E|-------------------8-8-7-7-5-5-5-3-3-3-3-3-3-3----------------------------|

Verse

Chorus

Bridge:X4
G|--------------------------------------------------------------------------|
D|--------------------------------------------------------------------------|
A|-0-0-0-0-0-0-0-0-5-5-5-5-5-5-5-5------------------------------------------|
E|--------------------------------------------------------------------------|

Solo Background:
G|--------------------------------------------------------------------------|
D|--------------------------------------------------------------------------|
A|-5-5-5-5-5-5-5-5-5-5-5-5-5-5-5-5-5-5-5------------------------------------|
E|--------------------------------------------------------------------------|

Outro: X14
G|--------------------------------------------------------------------------|
D|--------------------------------------------------------------------------|
A|--------------------------------------------------------------------------|
E|-8-8-7-7-5-5-5-3-3-3-3----------------------------------------------------|

Bodies
Intro
G|--------------------------|
D|--------------------------|
A|-------2---0-------2------|
E|--2/3----3----2/3------0--|

verse
G|----------------------------------------------|
D|-1-222-1-222-1-222-222------------------------|
A|------------------------1-222-1-222-1-222-222-|
E|----------------------------------------------|

Chorus
G|-------------------------------------------|
D|-------------------------------------------|
A|-------------------4-555-4-555-4-555-555---|
E|-33333333-55555555-------------------------|

Bridge
G|*---------*|------------------|
D|*---------*|------------------|
A|*---------*|-4-555555---------|
E|*-355-355-*|----------355-355-|

NO FEELINGS (c) 1977
  1  a  2  a  3  a  4  a        2x
G:------------------------|------------------------|------------------------|
D:3--3--3--3--3--3--3--3--|----'II//---------------|------------------------|
A:------------------------|---//II'----------------|1--1--1--1--1--1--1--1--|
E:------------------------|------------------------|------------------------|

VERSE 1.2.
G:------------------------|-------------------------------------------------|
D:o3--3--3--3--3--3--3--3-|---------'II//---x3------------------------------|
A:o-----------------------|--------//II'------------------------------------|
E:------------------------|-------------------------------------------------|

G:------------------------|------------------------|------------------------|
D:------------------------|------------------------|------------------------|
A:1--1--1--1--1--1--1--1--|------------------------|3--3--3--3--2--3--3--3--|
E:------------------------|3--3--3--3--3--3--3--3--|------------------------|

G:------------------------|------------------------|------------------------|
D:----------'II//--------o|------------------------|------------------------|
A:---------//II'---------o|1--1--1--1--1--1--1--1--|3--3--3--3--3--3--3--3--|
E:------------------------|------------------------|------------------------|

                2x                    2x
G:------------------------|------------------------|------------------------|
D:-------------'II//------|----------'II//---------|3--3--3--3--3--3--3--3--|
A:------------//II'-------|---------//II'----------|------------------------|
E:------------------------|------------------------|------------------------|

               ALT
G:------------------------|------------|------------------------||
D:-------------'//--------|3--3--------|3--3--3--3--3--3--3--3--||
A:------------//'---------|------1--1--|------------------------||
E:------------------------|------------|------------------------||

                                                    Solo
G:------------------------|------------------------|------------------------|
D:------------------------|------------------------|o-----------------------|
A:------------------------|------------------------|o-----------------------|
E:------------------------|------------------------|1--1--1--1--1--1--1--1--|

                                                            D.S. e(X)
G:------------------------|------------------------|------------------------|
D:------------------------|------------------------|----------'II//--------o|
A:------------------------|3--3--3--3--3--3--3--3--|---------//II'---------o|
E:3--3--3--3--3--3--3--3--|------------------------|------------------------|

G:------------------------|------------------------|------------------------|
D:------------------------|------------------------|------------------------|
A:------------------------|------------------------|------------------------|
E:------------------------|------------------------|------------------------|

  (x)                                                          4x
G:------------------------|------------------------|------------------------|
D:------------------------|------------------------|----------'II//---------|
A:1--1--1--1--1--1--1--1--|3--3--3--3--3--3--3--3--|---------//II'----------|
E:------------------------|------------------------|------------------------|

G:3--3--3--3--3--3--3--3--|------------|------|----------------|
D:------------------------|3--3--------|------|----------------|
A:------------------------|------1--1--|3--3--|-----1----------|
E:------------------------|------------|------|----------------|

G:--------------------|-|
D:--------------------|-|
A:---------1----------|-|
E:--------------------|-|

Liar
intro/verse
------------------|
------------------|
-5555555555555555-
------------------ continue till chorus

chorus (your insuspension)
-------------------------------------|
-------------------------------------|
-77777777-77777777-99999999-55555555-|
-------------------------------------|

intro/verse
-----------------------------------|
-----------------------------------|
-555555555555555555555555555555555-
----------------------------------- continue till chorus

chorus (your insuspension)
-------------------------------------|
-------------------------------------|
-77777777-77777777-99999999-55555555-|
-------------------------------------|

bridge
-----------------------------------------|
-----------------------------------------|
-55555555-55555555-55555555-5555-33-22---|
-----------------------------------------|

----------------------------------------|
----------------------------------------|
-77777777-77777777-77777777-77-55-44-22-|
----------------------------------------|

-------------------------------------|
-------------------------------------|
-55555555-55555555-55555555-55555555-|
-------------------------------------|

-------------------------------------|
-------------------------------------|
-77777777-77777777-77777777-77777777-|
-------------------------------------|

-------------------------------------|
-------------------------------------|
-55555555-55555555-55555555-55555555-|
-------------------------------------|

-------------------------------------------------------------------------|
-------------------------------------------------------------------------|
-55555555-55555555-33333333-33333333-55555555-55555555-88888888-55555555-|
-------------------------------------------------------------------------|

------------------------------------------------------------------------|
------------------------------------------------------------------------|
-55555555-55555555-33333333-33333333-8888888-88888888-99999999-99999999-|
------------------------------------------------------------------------|

intro/verse
------------------|
------------------|
-5555555555555555-
------------------ continue till chorus

chorus (your insuspension)
-------------------------------------|
-------------------------------------|
-77777777-77777777-99999999-55555555-|
-------------------------------------| 3X

last part
-------------|
-------------|
-55555555555-
------------- play until end

Song : Problems
Intro
                                  (3x)
G:--------------|----------------- ||-------------|-----------||
D:--------------|-----------------*||----------/7-|-7-7-5-4---||
A:--5-5-3-3-3---|---------------5-*||-5-5-3-3-3---|---------7-||
E:------------5-|-5-5-5-5-3/5-5--- ||-------------|-----------||

1st Verse
                                     (4x)
G:|| --------------|----------------- || -------------|-----------------|
D:||*--------------|-----------------*||*----------/7-|-7-7-7-7-5/7-7---|
A:||*--5-5-3-3-3---|---------------5-*||*-5-5-3-3-3---|---------------5-|
E:|| ------------5-|-5-5-5-5-3/5-5--- || -------------|-----------------|

G:--------------|----------------- ||
D:--------------|-----------------*||
A:--5-5-3-3-3---|-----------------*||
E:------------5-|-5-5-5-5-3/5-5-5- ||

1st and 2nd Choruses
G:------------------|-----------------|-----------------|-----------------|
D:------------------|-----------------|-----------------|-----------------|
A:------------------|-----------------|-----------------|-----------------|
E:--5-5-5-5-3/5-5-5-|-3/5-5-5-5-5-5-5-|-7-7-7-7-5/7-7-7-|-5/7-7-7-7-7-7-7-|

G:------------------|-----------------|| -------------|-------------------|
D:------------------|-----------------||*----------/7-|-7-7-7-7-5/7-7-7---|
A:------------------|---------------5-||*-5-5-3-3-3---|-----------------5-|
E:--8-8-8-8-7/8-8-8-|-8-8-8-8-8-8-8---|| -------------|-------------------|

G:--------------|----------------- ||
D:--------------|-----------------*||
A:--5-5-3-3-3---|---------------5-*||
E:------------5-|-5-5-5-5-3/5-5--- ||

2nd Verse
                                                                    (3x)
G:|| --------------|-----------------|------------|----------------- ||
D:||*-----------/7-|-7-7-7-7-5/7-7---|------------|-----------------*||
A:||*--5-5-3-3-3---|---------------5-|5-5-3-3-3---|---------------5-*||
E:|| --------------|-----------------|----------5-|-5-5-5-5-3/5-5--- ||

G:--------------|---------|-------------|-----------------||
D:-----------/7-|-7-5-4---|-------------|-----------------||
A:--5-5-3-3-3---|-------7-|-5-5-3-3-3---|-----------------||
E:--------------|---------|-----------5-|-5-5-5-5-3/5-5-5-||

Guitar Solo
                                   (6x)
G:|| --------------|----------------- ||----------------|-----------------|
D:||*--------------|-----------------*||----------------|-----------------|
A:||*--5-5-5-3-3-0-|-0-0-0-0-0-0-0-5-*||--5-5-5-3-3-3-0-|-0-0-3-3-0-0-3-5-|
E:|| --------------|----------------- ||----------------|-----------------|

G:----------------|-----------------||
D:----------------|-----------------||
A:--5-5-5-3-3-3-0-|-0-0-0-0-0-0-0-0-||
E:----------------|-----------------||

3rd Chorus
G:------------------|-----------------|-----------------|-----------------|
D:------------------|-----------------|-----------------|-----------------|
A:------------------|-----------------|-----------------|-----------------|
E:--5-5-5-5-3/5-5-5-|-3/5-5-5-5-5-5-5-|-7-7-7-7-5/7-7-7-|-5/7-7-7-7-7-7-7-|

G:------------------|-----------------|-------------|---------|
D:------------------|-----------------|----------/7-|-7-5-4---|
A:------------------|---------------5-|-5-5-3-3-3---|-------7-|
E:--8-8-8-8-7/8-8-8-|-7/8-8-8-8-8-8---|-------------|---------|

G:--------------|-----------------|-------------|-----------------|
D:--------------|-----------------|----------/7-|-7-7-7-7-5/7-7---|
A:--5-5-3-3-3---|---------------5-|-5-5-3-3-3---|---------------5-|
E:------------5-|-5-5-5-5-3/5-5---|-------------|-----------------|

G:--------------|-----------------|-------------|-----------------|
D:--------------|-----------------|----------/7-|-7-7-7-7-5/7-7---|
A:--5-5-3-3-3---|-----------------|-5-5-3-3-3---|---------------5-|
E:------------5-|-5-5-5-5-3/5-5-5-|-------------|-----------------|

G:--------------|-----------------||
D:--------------|-----------------||
A:--5-5-3-3-3---|---------------5-||
E:------------5-|-5-5-5-5-3/5-5---||

Bridge
G:|| --------------|-----------------|-------------|----------------- ||
D:||*-----------/7-|-7-7-7-7-5/7-7---|-------------|-----------------*||
A:||*--5-5-3-3-3---|---------------5-|-5-5-3-3-3---|---------------5-*||
E:|| --------------|-----------------|-----------5-|-5-5-5-5-3/5-5--- ||
                                    (3x)
G:|| -------------|----------------- ||-------------|-----------------||
D:||*-------------|-----------------*||----------/7-|-7-7-5-5-4-4-----||
A:||*-5-5-3-3-3---|---------------5-*||-5-5-3-3-3---|-------------7-7-||
E:|| -----------5-|-5-5-5-5-3/5-5--- ||-------------|-----------------||

Outro
G:------------------|-----------------|-----------------|-----------------|
D:------------------|-----------------|-----------------|-----------------|
A:------------------|-----------------|-----------------|-----------------|
E:--5-5-5-5-3/5-5-5-|-3/5-5-5-5-5-5-5-|-7-7-7-7-5/7-7-7-|-5/7-7-7-7-7-7-7-|

G:------------------|-----------------|-------------|-----------------|
D:------------------|-----------------|----------/7-|-7-7-7-7-5/7-7---|
A:------------------|---------------5-|-5-5-3-3-3---|---------------5-|
E:--8-8-8-8-7/8-8-8-|-7/8-8-8-8-8-8---|-------------|-----------------|

G:--------------|-----------------|-------------|-----------------|
D:--------------|-----------------|----------/7-|-7-7-5-5-4-4-----|
A:--5-5-3-3-3---|---------------5-|-5-5-3-3-3---|-------------7-7-|
E:------------5-|-5-5-5-5-3/5-5---|-------------|-----------------|

G:--------------|-----------------|-------------|-----------------|
D:--------------|-----------------|-------------|-----------------|
A:--5-5-3-3-3---|---------------5-|-5-5-3-3-3---|---------------5-|
E:------------5-|-5-5-5-5-3/5-5---|-----------5-|-5-5-5-5-3/5-5---|

G:|| --------------|----------------- ||-------------|-----------------|
D:||*--------------|-----------------*||----------/7-|-7-7-7-7-5/7-7---|
A:||*--5-5-3-3-3---|---------------5-*||-5-5-3-3-3---|---------------5-|
E:|| ------------5-|-5-5-5-5-3/5-5--- ||-------------|-----------------|

G:--------------|-----------------|| -------------|----------------- ||
D:--------------|-----------------||*----------/7-|-7-7-7-7-5/7-7---*||
A:--5-5-3-3-3---|---------------5-||*-5-5-3-3-3---|---------------5-*||
E:------------5-|-5-5-5-5-3/5-5---|| -------------|----------------- ||

G:--------------|-----------------|-------------|-----------------|
D:--------------|-----------------|----------/7-|-7-7-7-7-5/7-7-7-|
A:--5-5-3-3-3---|---------------5-|-5-5-3-3-3---|-----------------|
E:------------5-|-5-5-5-5-3/5-5---|-------------|-----------------|
                     (10x)
G:|| ----------------- ||-----|---------||
D:||*-----------------*||-7-5-|---------||
A:||*-----------------*||-----|-7-5-3---||
E:|| -5-5-5-5-5-5-5-5- ||-----|-------5-||

God Save the Queen
INTRO:
G---------------------------------------------------------------------|
D---------------------------------------------------------------------|
A-1112121212121212111212121212121112121112-12-11-12-12-12-12-12-12-12-|
E---------------------------------------------------------------------|

G----------------------|
D----------------------|
A-0---------------5-4-5|  x3
E----------------------|

G---------------------------------|
D---------------------------------|
A---------------------------------|
E-4-5-5-5-5-5-5-5-4-5-5-5-5-5-5-5-|

VERSE:
G---------------------------|
D---------------------------|
A-0-0-0-0-0-0-0-0-5-5-5-4-5-|  x3
E---------------------------|

G---------------------------------|
D---------------------------------|
A---------------------------------|
E-4-5-5-5-5-5-5-5-4-5-5-5-5-5-5-5-|

G---------------------------|
D---------------------------|
A-0-0-0-0-0-0-0-0-5-5-5-4-5-|  x3
E---------------------------|

G---------------------------------|
D---------------------------------|
A---------------------------------|
E-4-5-5-5-5-5-5-5-4-5-5-5-5-5-5-5-|

CHORUS:
G---------------------------------------|
D---------------------------------------|
A-7-7-7------6-7-7-7-6-7-7-7-7-7-7------|
E------7-7-7----------------------7-7-7-|

SOLO:
G--------------------------------|
D-4-4-4-4-4-4-4-4----------------|
A----------------2-2-2-2-2-2-2-2-|  x3
E--------------------------------|

G-------------------------------|
D-4-4-4-4-4-4-4-4-2-2-2-2-2-2-2-|
A-------------------------------|
E-------------------------------|

OUTRO
G-----------------|
D-----------------|
A-5-5-5-5-4-4-2-2-|   x3
E-----------------|

G-----------------|
D-----------------|
A-0-0-0-0-0-0-0-0-|
E-----------------|

G-----------------|
D-----------------|
A-5-5-5-5-4-4-2-2-|  x3
E-----------------|

G-----------------|
D-----------------|
A-0-0-0-0-0-0-0-0-|
E-----------------|

G-----------------|
D-----------------|
A-5-5-5-5-4-4-2-2-|  x3
E-----------------|

G-----------------------------------------------|
D-----------------------------------------------|
A-----------------------------------------------|
E-4-5-5-5-5-5-5-5-4-5-5-5-5-5-5-4-5-5-5-5-5-5-5-|

Seventeen
Intro(also played after last chorus):
G --------------------------|
D --------------------------|
A 5~0~5~0~5~7777777777777777
E --------------------------

Verse:
G ---------------------------------------------------------------------|
D ---------------------------------------------------------------------|
A 0-000034555555540-0-0034777777740-000034555555556p7776p7776p7776p777-|
E ---------------------------------------------------------------------|

 Chorus:
G ---------------------------------------------------------------|
D ---------------------------------------------------------------|
A 55555555000000005555555500000000555555557776p7776p7776p7776p777
E ---------------------------------------------------------------

Bridge:
G ----------------------------------------------------------------------------|
D ----------------------------------------------------------------------------|
A --------------------00555000555------------------005550007776p7776p7776p777-|
E 2222222233333333-----------------2222222233333333---------------------------|

Anarchy In The U.K.
verse
G-------------------------------------------------------------------|
D-------------------------------------------------------------------|
A--3-3-0-3-3-3-0-3-3-3-0-3-3-3-0-3-3-3-0-3-3-3-0-3-3-3-0-3-3-3-0-3--|
E-------------------------------------------------------------------|

G-----------------------------------|
D-----------------------------------|  x3
A--3-3-0-3-3-3-0-3-3-3-0-3-8-8-7-7--|
E-----------------------------------|

G-----------------------------------|
D-----------------------------------|
A--3-3-0-3-3-3-0-3-3-3-0-3-3-3-0-3--|
E-----------------------------------|

Chorus
G-------------------------------------------------------------------|
D--5-5-5-5-5-5-5-5-5-5-5-5-5-5-5-5-3-3-3-3-3-3-3-3-2-2-2-2-0-0-0-0--|
A-------------------------------------------------------------------|
E-------------------------------------------------------------------|

G-------------------------------------------------------------------|
D-------------------------------------------------------------------|
A--3-3-0-3-3-3-0-3-3-3-0-3-8-8-7-7-3-3-0-3-3-3-0-3-3-3-0-3-3-3-0-3--|
E-------------------------------------------------------------------|

Guitar Solo
G-------------------------------------------------------------------|
D-------------------------------------------------------------------|
A--5-5-5-5-5-5-5-5-7-7-7-7-7-7-7-7-5-5-5-5-5-5-5-5-7-7-7-7-7-7-7-7--|
E-------------------------------------------------------------------|

G-------------------------------------------------------------------|
D--------------------------------------------------5-5-5-5-5-5-5-5--|
A--5-5-5-5-5-5-5-5-7-7-7-7-7-7-7-7-5-5-5-5-5-5-5-5------------------|
E-------------------------------------------------------------------|

G---------------------------------------------------|
D--5-5-5-5-5-5-5-5----------------------------------|
A---------------------------------------------------|
E------------------3-3-3-3-3-3-3-3-3-3-3-3-3-3-3-3--|

Bridge
G-------------------------------------|
D-------------------------------------| x4
A--5-5-5-5-5-5-5-5-5-5-5-5-10-10-9-9--|
E-------------------------------------|

Intro:
G ----
D ----
A 8~6~
E ----

Verse:
G ---------------------|
D ---------------------|
A ------------6666-----|
E 8888-6666--------888-|

Chorus:
G -------------------------------------------------------|
D -------------------------------------------------------|
A 6666666688888888----------------------6666666688888888-|
E -----------------------886888688868886-----------------| back to verse

?Pretty Vacant? by The Sex Pistols
Intro:
G:--------------------------------------------| x4
D:--------------------------------------------|
A:--------------------------------------------|
E:--55555555----------------------------------|

Verse:
G:--------------------------------------------| x2
D:--------------------------------------------|
A:-----------555---------------77777777-------|
E:--555-3333-----5555-33333333----------------|

Pre-Chorus:
G:--------------------------------------------| x1
D:--------------------------------------------|
A:--------------------------------------------|
E:--77777777----------------------------------|

Chorus:
G:--------------------------------------------| x4
D:--------------------------------------------|
A:--55555-33333-------------------------------|
E:--------------5555555555--------------------|

Interlude:
G:--------------------------------------------| x4
D:--------------------------------------------|
A:--------------------------------------------|
E:--55555555----------------------------------|

End:
G:--------------------------------------------|
D:--------------------------------------------|
A:--------------------------------------------|
E:--555555-34-555555-34-----------------------|

Sex Pistols - New York
Intro:
G:------------------------------------|
D:------------------------------------|
A:------------7-7-7-7-7-7-7-7-7-7-7-7-|
E:-2-/-5--5---------------------------|

G:----------------------------------------|
D:----------------------------------------|
A:----------------------------------------|
E:7-7-7-7-7-7-7-7-7-7-7-7-7-7-7-7-7-7-7-7-|

Verse:
G:-----------------| x6
D:-----------------|
A:-----------------|
E:-7-7-7-7-5-5-5-5-|

G:------------------------------|
D:------------------------------|
A:-------------5-5-5------------|
E:-7-7-7-5-5-5-------5-5-5------|
(Sometimes after chorus, dont go back to E:-5-, and just continue
 to play E:-7-

Chorus:
G:---------------------------------------------------------------|
D:---------------------------------------------------------------|
A:-7-7-7-7-7-7-7-7-7-7-7-7-7-------------7-7-7-7-7-7-7-7-7-7-7-7-|
E:---------------------------2-2-5-5-5---------------------------|

First Bridge("Four years on you still look the same...."):
G:---------------------------------|
D:---------------------------------|
A:-7-7-7-5-5-5---------------------|
E:-----------------7-7-7-3-3-3-3-3-|

G:---------------------------------------------------|
D:---------------------------------------------------|
A:7-7-7-5-5-5--------------7-7-7-5-5-5---------------|
E:-------------3-3-3-3-3-3-----------------3-3-3-3-3-|

G:-----------------------------------------|
D:-----------------------------------------|
A:-7-7-7-7-7-7-7---------------------------|
E:---------------2-2-2-2-2-2-2-2-2-2-2-2-2-|

G:---------------------------------------------------------------------|
D:---------------------------------------------------------------------|
A:---------------------------------------------------------------------|
E:-7-7-7-7-5-5-5-5-7-7-7-7-5-5-5-5-7-7-7-7-5-5-5-5-7-7-7-7-7-7-7-7-7-7-|

During solo do verse with extra E:-7-'s at the end instead of the
Verse Continued

Second Bridge("Stil out on those pills.."):
G:-------------------------------------------------------------|
D:-------------------------------------------------------------|
A:-7-7-7-7-7-7-7-7-7-7-7-7-------------------------------------|
E:-------------------------5-5-5-5-5-5-2-2-2-2-2-2-2-2-2-2-2-2-|

G:------------------------------------|
D:------------------------------------|
A:--------------7-7-7-7-7-7-7-7-7-7-7-|
E:--5-5-5-5-5-5-----------------------|

G:-------------------------------------------------------|
D:-------------------------------------------------------|
A:-----------7-7-7-7----------7-7-7-7------------7-7-7-7-|
E:-7-7-7-7----------7-7-7-7-----------7-7-7-7------------|

*Continue this until the end of the song. Ends on
 E:-7-.

EMI
Intro
G----------------------------------------------|
D----------------------------------------------|
A--88888888888888888---|-----------------------|
E----------------------|--66666-6-8-1111-1-3---|Repeats

Verse 1, 0:19
G----------------------|
D-----------3333333----|
A--1111111-------------|
E----------------------|

0:31
G---------------|--------|
D-111-----------|-11-33--|
A-------1111111-|--------|
E---------------|--------|

Verse 2, 0:45
G--------------------------|
D--------------------------|
A--------------------------|
E--6-666666-1111-1-3-------|Repeat 4x (on the 4th time dont play the 3)

0:57
G-----------------------|------------|
D-----------------------|------------|
A--666------------------|----66-88---|(play on 4th time)
E-------6666666-(4x)----|------------|

bridge, 1:11
G-----------------------------------------------------------------------------|
D-----------------------------------------------------------------------------|
A-----------------------------------------------------------------------------|
E8888888-3333333-88884444-66666668888888-3333333-2222222-11111111111111111111-|

solo, 1:29
G----------------------|
D----------------------|
A----------------------|
E--6666666-10-10-8-8---|Repeats 4x

1:42
G-----------------------------|--------------------------|
D-----------------------------|--------------------------|
A----------------8888888-(3X)-|-----------------8888-6-6-|
E--6666666--------------------|--6666666-----------------|2x

2:08, muffle the 1st three 8's
G----------------|-----------|
D----------------|-----------|
A----------------|----66-88--|(play on 4th time)
E--888m-666666---|-----------|

2:22
G----------------------------|
D----------------------------|
A----------------------------|
E--6666666--1111111----------|Repeats 4x

2:35, muffle in the 1st three 8's
G---------------------|-----------------|
D---------------------|-----------------|
A---------------------|---6-------------|
E--888m-6666666---8x--|--------6----6---|
comments
print report bad tab
10 comments total. Showing first comments.
-1 reply
wangmaster wrote on July 10 2006, 03:37 pm

yah. great. but this album has no bass.

0 reply
skippy_moogoose wrote on September 6 2006, 12:56 pm

bull, course it has, mostly done by steve jones and glen matlock, sid couldnt play bass, that dont mean there's no bas son the record.

0 reply
mattyprecision wrote on December 13 2006, 03:02 am

well glen did alot of the songs on the never mind the bollox album then sid came n took ages tolearn it then did god saved the queen

I want to post or [tab]
guest
You may want to rate the tab now too:
select rating
Please do not post tabs as comments. Select "correction" instead!