Oops, an error
Loading. Please wait.

Never Mind The Bollocks Heres The Sex Pistols Tab

31,520 views 30 this week
10 commentsread comments
1 2 3 4 5
excellent!
x 13
Autoscroll
+/-
esc
set tempo
stop
Contributor
Hey! There's an official Ultimate Guitar app which is ideal
for learning songs when you're away from computer. Get the app
WARNING: You are trying to view
                                    content from Ultimate-Guitar.com
                                    in an unauthorized application,
                                    which is prohibited.

                                    Please use an official Ultimate
                                    Guitar Tabs application for iPhone,
                                    iPad or Android to access legitimate
                                    chords, guitar, bass, and drum tabs
                                    from Ultimate-Guitar.com database.

                                    Type "ultimate guitar tabs" in Apple
                                    App Store's or Android Market's
                                    search to find the application.
Never Mind The Bollocks Heres The Sex Pistols
The Sex Pistols

Original Release Date: October 1977


1. Holidays In The Sun
2. Bodies
3. No Feelings
4. Liar
5. Problems
6. God Save The Queen
7. Seventeen
8. Anarchy In The U.K.
9. Sub-Mission
10. Pretty Vacant
11. New York
12. EMI

---------------------------------------------------------------------------
Holidays In The Sun
---------------------------------------------------------------------------


          Key:
          -x\\\\\\- pick scrape
          P.M. palm mute


          INTRO


          -2-2-2----------------    ------------|
          -3-3-3----------------    ------------|
          -2-2-2----------------    ------------|
          -0-0-0----------------    -x\\\\\\\\\-|
          ----------------------    -x\\\\\\\\\-|
          ---------------------- x4 ------------|


          Main riff


          Gtr.1
          -----------------------|
          -----------------------|
          -5--5-4--2-------------|
          -5--5-4--2--5-5--5-5-5-|
          -3--3-2--0--5-5--5-5-5-|
          ------------3-3--3-3-3-| x4
          |
          |Gtr.2
          -----------------------|
          -----------------------|
          -5--5-4----------------|
          ---------7--5-5--5-5-5-| (there is vibrato in this part later in the song)
          -----------------------|
          -----------------------| x4


          G5-2 bars


          VERSE


          -----------------------|
          -----------------------|
          -----------------------|
          -------------------5---|
          -5-5-5-5-5-5-5-5-3---0-|
          -3-3-3-3-3-3-3-3-----0-| x4
          P.M..................


          CHORUS


          C (x3555x)                                D (x5777x)
          -------------------------------------------------------|
          -------------------------------------------------7-----|
          -------------------------------------------------7-----| (Gtr.2 plays specified
          -4-5-5-5-5-5-5-5-5-5-5-5-5-5-7-7-9-7-7-7-7-7-9-7-7-----|         chords)
          -2-3-3-3-2-3-3-3-3-3-3-3-3-3-4-5-5-5-5-5-4-5-5-5-5-----|
          -------------------------------------------------------| x2 (ad lib. on repeat)


          INTERLUDE


          Repeat main riff x4


          G5-2 bars


          REPEAT VERSE


          REPEAT CHORUS


          INSTRUMENTAL


          Repeat main riff x4 (last time G5 goes until verse 3)


          Over that goes this....


          ---------------------15---------15---------|
          -------------15---------15---------15------|
          -------------17-(19)----17-(19)----17-(19)-|
          -------------------------------------------|
          -------------------------------------------|
          -------------------------------------------| x3


          then....
          ---------------------------|
          -15------------------------|
          -17-(19)----4-(6)(4)-2~~~~-| (going into verse 3)
          ---------------------------|
          ---------------------------|
          ---------------------------|


          VERSE 3
                                                  *
          -------------------------------------|
          -------------------------------------|
          -----------------7-7-7-7-7-7-7-7-----|
          -7-7-7-7-7-7-7-7-7-7-7-7-7-7-7-7-----|
          -7-7-7-7-7-7-7-7-5-5-5-5-5-5-5-5/14\-|
          -5-5-5-5-5-5-5-5---------------------| x4 (/14\ happens only last time)
          P.M............................


          *after each line, gtr.2 goes....
          -9------------|
          ---10---------|
          ------9~~~~~~-|
          --------------|
          --------------|
          --------------| x3 (last time let ring)


          MIDDLE


          Gtr.1
          -----------------------------------------|
          -9-------------------------------2-------|
          -9-------------------------------2-------|
          -9--------5----------------------2-------|
          -7--------5----------------------0-------|
          -0--------3------------------------------| x2
          |
          |Gtr.2
          -----------------------------------------|
          -----------------------------------------|
          -9---------------------4-(6)-(4)-2~~~~~~-|
          -9---------------------------------------|
          -7---------------------------------------|
          -0--------3-(4)-(3)----------------------| x2


          SOLO 2


          Gtr.1 plays D throughout


          Gtr.2
          ---------10-| repeat ad lib for 6 bars
          -10------10-|
          -12-(14)----|
          ------------|
          ------------|
          ------------|


          -------10-    -------15------------|
          -12^13----    -12^13----10---------|
          ----------    -------------12-(13)-|
          ----------    ---------------------|
          ----------    ---------------------|
          ---------- x4 ---------------------|


          REPEAT CHORUS


          OUTRO


          Gtr.1 plays main riff x8


          Gtr.2
          -------3-| repeat ad lib. over main riff x8
          -3-----3-|
          -5-(7)---|
          ---------|
          ---------|
          ---------|


          (Gtr.1)
          G5-2 bars
          Gtr.2
          -------3-| repeat ad lib. for 2 bars of G5
          -3-----3-|
          -5-(7)---|
          ---------|
          ---------|
          ---------|


          (Gtr.1)
          G5-1 bar
          Gtr.2
          -------3--------------------------------|
          -3-----3-3------------------------------|
          -5-(7)---5-(7)-(5)-3---3----------------|
          ---------------------5---5----5~~~~~~~~-|
          ----------------------------------------|
          ----------------------------------------|
                                        *


          * last G5

---------------------------------------------------------------------------
Bodies
---------------------------------------------------------------------------

intro

-2/3----3--------2/3-----0-----|(3times)
-------------------------------|
-----2-----0---------2---------|
-------------------------------|
-------------------------------|
-------------------------------|

last time

--2/3-----3---------2/3------0-----|let ring
-----------------------------2-----|
-------2-----0----------2----------|
-----------------------------------|
-----------------------------------|
-----------------------------------|

verse

---5-/-77---5-/-77---5-/-77--77------|(4 times)
---7-/-99---7-/-99---7-/-99--99------|
---7-/-99---7-/-99---7-/-99--99------|
-------------------------------------|
-------------------------------------|
-------------------------------------|

---1-/-22--1-/-22--1-/-22--22-------|(1 time)
---3-/-44--3-/-44--3-/-44--44-------|
---3-/-44--3-/-44--3-/-44--44-------|
------------------------------------|
------------------------------------|
------------------------------------|

---5-/-77---5-/-77---5-/-77--77------|(1 time)
---7-/-99---7-/-99---7-/-99--99------|
---7-/-99---7-/-99---7-/-99--99------|
-------------------------------------|
-------------------------------------|
-------------------------------------|

---1-/-22--1-/-22--1-/-22--22-------|(1 time)
---3-/-44--3-/-44--3-/-44--44-------|
---3-/-44--3-/-44--3-/-44--44-------|
------------------------------------|
------------------------------------|
------------------------------------|

---5-/-77---5-/-77---5-/-77--77------|(1 time)
---7-/-99---7-/-99---7-/-99--99------|
---7-/-99---7-/-99---7-/-99--99------|
-------------------------------------|
-------------------------------------|
-------------------------------------|

chorus

---3333333---5555555-----------------------------------|
---5555555---7777777----4-/-55--4-/-55--4-/-55--55-----|
---5555555---7777777----6-/-77--6-/-77--6-/-77--77-----|
------------------------6-/-77--6-/-77--6-/-77--77-----|
-------------------------------------------------------|
-------------------------------------------------------|

---3333333---5555555---------------------5555555--------------|
---5555555---7777777----4-/-55--4-/-55---7777777--------------|
---5555555---7777777----6-/-77--6-/-77---7777777--------------|
------------------------6-/-77--6-/-77------------------------|
--------------------------------------------------------------|
--------------------------------------------------------------|

verse

---5-/-77---5-/-77---5-/-77--77------|(4 times)
---7-/-99---7-/-99---7-/-99--99------|
---7-/-99---7-/-99---7-/-99--99------|
-------------------------------------|
-------------------------------------|
-------------------------------------|

---1-/-22--1-/-22--1-/-22--22-------|(1 time)
---3-/-44--3-/-44--3-/-44--44-------|
---3-/-44--3-/-44--3-/-44--44-------|
------------------------------------|
------------------------------------|
------------------------------------|

---5-/-77---5-/-77---5-/-77--77------|(1 time)
---7-/-99---7-/-99---7-/-99--99------|
---7-/-99---7-/-99---7-/-99--99------|
-------------------------------------|
-------------------------------------|
-------------------------------------|

---1-/-22--1-/-22--1-/-22--22-------|(1 time)
---3-/-44--3-/-44--3-/-44--44-------|
---3-/-44--3-/-44--3-/-44--44-------|
------------------------------------|
------------------------------------|
------------------------------------|

---5-/-77---5-/-77---5-/-77--77------|(1 time)
---7-/-99---7-/-99---7-/-99--99------|
---7-/-99---7-/-99---7-/-99--99------|
-------------------------------------|
-------------------------------------|
-------------------------------------|

chorus

---3333333---5555555-----------------------------------|
---5555555---7777777----4-/-55--4-/-55--4-/-55--55-----|
---5555555---7777777----6-/-77--6-/-77--6-/-77--77-----|
------------------------6-/-77--6-/-77--6-/-77--77-----|
-------------------------------------------------------|
-------------------------------------------------------|

---3333333---5555555---------------------|(play fill right after here)
---5555555---7777777----4-/-55--4-/-55---|
---5555555---7777777----6-/-77--6-/-77---|
------------------------6-/-77--6-/-77---|
-----------------------------------------|
-----------------------------------------|

fill

--3-/-55--3-/-55-----------3-/-55--3-/-55--------------|
--5-/-77--5-/-55--5555555--5-/-77--5-/-77--5555555-----|
--5-/-77--5-/-55--7777777--5-/-77--5-/-77--7777777-----|
------------------7777777------------------7777777-----|
-------------------------------------------------------|
-------------------------------------------------------|

--3-/-55--3-/-55-----------3-/-55--3-/-55--------------|
--5-/-77--5-/-55--5555555--5-/-77--5-/-77--5555555-----|
--5-/-77--5-/-55--7777777--5-/-77--5-/-77--7777777-----|
------------------7777777------------------7777777-----|
-------------------------------------------------------|
-------------------------------------------------------|

--3-/-55--3-/-55-----------3-/-55--3-/-55--------------|
--5-/-77--5-/-55--5555555--5-/-77--5-/-77--5555555-----|
--5-/-77--5-/-55--7777777--5-/-77--5-/-77--7777777-----|
------------------7777777------------------7777777-----|
-------------------------------------------------------|
-------------------------------------------------------|

--3-/-55--3-/-55-----------3-/-55--3-/-55----------------|
--5-/-77--5-/-55--5555555--5-/-77--5-/-77--5-------------|~~~~~~let ring
--5-/-77--5-/-55--7777777--5-/-77--5-/-77--7~~~~~~~------|
------------------7777777------------------7~~~~~~~------|
---------------------------------------------------------|
---------------------------------------------------------|

verse

---5-/-77---5-/-77---5-/-77--77------|(4 times)
---7-/-99---7-/-99---7-/-99--99------|
---7-/-99---7-/-99---7-/-99--99------|
-------------------------------------|
-------------------------------------|
-------------------------------------|

---1-/-22--1-/-22--1-/-22--22-------|(1 time)
---3-/-44--3-/-44--3-/-44--44-------|
---3-/-44--3-/-44--3-/-44--44-------|
------------------------------------|
------------------------------------|
------------------------------------|

---5-/-77---5-/-77---5-/-77--77------|(1 time)
---7-/-99---7-/-99---7-/-99--99------|
---7-/-99---7-/-99---7-/-99--99------|
-------------------------------------|
-------------------------------------|
-------------------------------------|

---1-/-22--1-/-22--1-/-22--22-------|(1 time)
---3-/-44--3-/-44--3-/-44--44-------|
---3-/-44--3-/-44--3-/-44--44-------|
------------------------------------|
------------------------------------|
------------------------------------|

---5-/-77---5-/-77---5-/-77--77------|(1 time)
---7-/-99---7-/-99---7-/-99--99------|
---7-/-99---7-/-99---7-/-99--99------|
-------------------------------------|
-------------------------------------|
-------------------------------------|

chorus

---3333333---5555555-----------------------------------|
---5555555---7777777----4-/-55--4-/-55--4-/-55--55-----|
---5555555---7777777----6-/-77--6-/-77--6-/-77--77-----|
------------------------6-/-77--6-/-77--6-/-77--77-----|
-------------------------------------------------------|
-------------------------------------------------------|

---3333333---5555555------------------------------------|play fill right after
---5555555---7777777----4-/-55--4-/-55------------------|
---5555555---7777777----6-/-77--6-/-77------------------|
------------------------6-/-77--6-/-77------------------|
--------------------------------------------------------|
--------------------------------------------------------|

fill

--3-/-55--3-/-55-----------3-/-55--3-/-55--------------|
--5-/-77--5-/-55--5555555--5-/-77--5-/-77--5555555-----|
--5-/-77--5-/-55--7777777--5-/-77--5-/-77--7777777-----|
------------------7777777------------------7777777-----|
-------------------------------------------------------|
-------------------------------------------------------|

--3-/-55--3-/-55-----------3-/-55--3-/-55--------------|
--5-/-77--5-/-55--5555555--5-/-77--5-/-77--5555555-----|
--5-/-77--5-/-55--7777777--5-/-77--5-/-77--7777777-----|
------------------7777777------------------7777777-----|
-------------------------------------------------------|
-------------------------------------------------------|

--3-/-55--3-/-55-----------3-/-55--3-/-55--------------|
--5-/-77--5-/-55--5555555--5-/-77--5-/-77--5555555-----|
--5-/-77--5-/-55--7777777--5-/-77--5-/-77--7777777-----|
------------------7777777------------------7777777-----|
-------------------------------------------------------|
-------------------------------------------------------|

--3-/-55--3-/-55-----------3-/-55--3-/-55--------------|
--5-/-77--5-/-55--5555555--5-/-77--5-/-77--5~~~~~~~--5-|end
--5-/-77--5-/-55--7777777--5-/-77--5-/-77--7~~~~~~~--7-|
------------------7777777------------------7~~~~~~~--7-|
-------------------------------------------------------|
-------------------------------------------------------|

---------------------------------------------------------------------------
No Feelings
---------------------------------------------------------------------------

^=half step bend
pm=palm mute
h=hammer on
p=pull off
=slide down
~=vibrato
3=triplet
/
/=same chord being strummed
  Intro
  E |----------------------------------------|
  B |----------------------------------------|
  G |----------------------------------------|
  D |------------3-3---5-5-------------------|
  A |3-3---5-5---1-1---3-3-------------------|2x
  E |1-1---3-3-------------------------------|

  E |----------------------------------------|
  B |----------------------------------------|
  G |----------------------------------------|
  D |10/-///-//-////-//-////-x---------------|
  A |-8/-///-//-////-//-////-x8//////--------|
  E |-------------------------6//////--------|


Verse
  E |----------------------------------------|
  B |----------------------------------------|
  G |----------------------------------------|
  D |1010-----------1010----------1010-------|
  A |8-8--8-8-8-8-8-8-8-8-8-8-8-8-8-8--------|
  E |----------------------------------------|
          pm.......     pm.......

  E |----------------------------------------|
  B |----------------------------------------|
  G |----------------------------------------|
  D |--1010---101010101010-------------------|
  A |8-8-8--8-8-8-8-8-8-8--------------------|
  E |----------------------------------------|
    pm     pm

  E |-------------------------------------------------|
  B |-------------------------------------------------|
  G |-------------------------------------------------|
  D |--------------------------------5-5-5-5-5-5-5-5-5|
  A |8-8-8-8-8-8-8---5-5-5-5-5-5-5---3-3-3-3-3-3-3-3-3|
  E |6-6-6-6-6-6-6-0-3-3-3-3-3-3-3-0------------------|

Verse

Chorus
  E |----------------------------------------|
  B |----------------------------------------|
  G |3-/-/-/-/-/-/-/-5-/-/-/-/-/-/-/---------|
  D |3-/-/-/-/-/-/-/-5-/-/-/-/-/-/-/---------|
  A |1-/-/-/-/-/-/-/-3-/-/-/-/-/-/-/---------|x3
  E |----------------------------------------|

                                        Fill 1
  E |----------------------------------------|
  B |----------------------------------------|
  G |10--------------3-----------------------|
  D |10--------------3-------5---------------|
  A |8---------------1-------5---------------|
  E |------------------------3---------------|

Verse x2
Fill 1

  Gtr 1                                 Riff 1
  E |----------------------------------------|
  B |----------------------------------------|
  G |--------3-------5-----------------------|
  D |3-------3-------5-----------------------|
  A |3-------1-------3-----------------------|x4
  E |1---------------------------------------|

  Gtr 2  over Riff 1
  E |----------------------------------------|
  B |----------------------------------------|
  G |-------------------------9-9h10p9-------|
  D |--------3-3-----55-5555----------12-10--|
  A |3-3-----1-1-----33-3333-----------------|
  E |1-1-------------------------------------|

  E |----------------------------------------|
  B |----------------------------------------|
  G |--------------------------5-5~----------|
  D |--------3-3-----55-5555-----------------|
  A |3-3-----1-1-----33-3333-----------------|
  E |1-1-------------------------------------|

  E |----------------------------------------|
  B |----------------------------------------|
  G |--------------------------7-7-7-7-7-----|
  D |--------3-3-----55-5555-----------------|
  A |3-3-----1-1-----33-3333-----------------|
  E |1-1-------------------------------------|

  E |----------------------------------------|
  B |----------------------------------------|
  G |--------------------------7-7-7-7-7-9~--|
  D |--------3-3-----55-5555-----------------|
  A |3-3-----1-1-----33-3333-----------------|
  E |1-1-------------------------------------|

-------------------------------------------------------------------------
Liar
-------------------------------------------------------------------------

Intro
e|---------------------------------|
B|---------------------------------|
G|-7-7-7-7-7-7-7-7-7-7-7-7-7-7-7-7-|
D|-x-x-x-x-x-x-x-x-x-x-x-x-x-x-x-x-|
A|-5-5-5-5-5-5-5-5-5-5-5-5-5-5-5-5-|
E|---------------------------------|  x3
P.M

e|------------------|
B|------------------|
G|-7-7-7-7-7-7-7-7~-|
D|-x-x-x-x-x-x-x-x~-|
A|-5-5-5-5-5-5-5-5~-|
E|------------------|
P.M


Verse
e|-------------------------------------|
B|-------------------------------------|
G|-------------------------------------|
D|-7-7-7-7-7-7-7-7-7-7-7-7-5/7-5/7-5/7-|
A|-5-5-5-5-5-5-5-5-5-5-5-5-3/5-3/5-3/5-|
E|-------------------------------------|

Chorus
e|-------------------------------------------------------------------|
B|-------------------------------------------------------------------|
G|-------------------------------------------------------------------|
D|-2-2-2-2-2-2-2-2-2-2-2-2-2-2-2-2-4-4-4-4-4-4-4-4-------------------|
A|-0-0-0-0-0-0-0-0-0-0-0-0-0-0-0-0-2-2-2-2-2-2-2-2-5-5-5-5-5-5-5-5-5-|
E|-------------------------------------------------3-3-3-3-3-3-3-3-3-|

Post chorus
e|-------------------------------------------------|
B|-------------------------------------------------|
G|-------------------------------------------------|
D|-7-7-7-7-7-7-7-7-7-7-7-7-7-7-7-7-7-7-7-7-7-7--7~-|
A|-5-5-5-5-5-5-5-5-5-5-5-5-5-5-5-5-5-5-5-5-5-5--5~-|
E|-------------------------------------------------|
P.M


Bridge
e|---------------------------|
B|---------------------------|
G|---------------------------|
D|-2-2-2-2-2-2-2-2-2-2-2-2-2-|
A|-0-0-0-0-0-0-0-0-0-0-0-0-0-|
E|---------------------------| x3

e|---------------------------|
B|---------------------------|
G|---------------------------|
D|-7-7-7-7-7-7-7-7-7-7-7-7-7-|
A|-5-5-5-5-5-5-5-5-5-5-5-5-5-|
E|---------------------------| x3

e|---------------------------|
B|---------------------------|
G|---------------------------|
D|-2-2-2-2-2-2-2-2-2-2-2-2-2-|
A|-0-0-0-0-0-0-0-0-0-0-0-0-0-|
E|---------------------------| x3


Solo
e|-----------------------------------------------------------------|
B|-12b-12b-12b-12b-12b-12b-12b-12b-12b-12b-12b-12b-12b-12b-12b-12b-|
G|-12b-12b-12b-12b-12b-12b-12b-12b-12b-12b-12b-12b-12b-12b-12b-12b-|
D|-----------------------------------------------------------------|
A|-----------------------------------------------------------------|
E|-----------------------------------------------------------------|

e|--------------------------------------------------------------|
B|-12b-12b-12b-12b-12b-12---12-10-10b-10--10-----------------12-|
G|-12b-12b-12b-12b-12b-12b--12-10-12b--------12---12b12-10~-----|
D|--------------------------------------------------------------|
A|--------------------------------------------------------------|
E|--------------------------------------------------------------|

e|-----------------------------------------------------------------|
B|-12b-12b-12b-12b-12b-12b-12b-12b-12b-12b-12b-12b-12b-12b-12b-----|
G|-12b-12b-12b-12b-12b-12b-12b-12b-12b-12b-12b-12b-12b-12b-12b-12b-|
D|-----------------------------------------------------------------|
A|-----------------------------------------------------------------|
E|-----------------------------------------------------------------|

e|-----------------------------------------------------------------|
B|-13-----13------13-----13-----13------15-------15-------15-------|
G|----12b----12b----12b----12b-----14b------14b------14b-----14b---|
D|-----------------------------------------------------------------|
A|-----------------------------------------------------------------|
E|-----------------------------------------------------------------|

e|---------------------|
B|-15-------15---15----|
G|----14b--------------|
D|------------------7/-|
A|------------------5/-|
E|---------------------|

----------------------------------------------------------------------------
Problems
----------------------------------------------------------------------------

Intro  (Main riff)                                 4x
||---------------------------|------------------------||
||---------------------------|------------------------||
||*--------------------------|-----5-----5--7--7-----*||
||*--7--7--7--5-----5--5--7--|--7--5--7--5--7--7--7--*||
||---5--5--5--3-----3--3--0--|--0-----0-----------5---||
||---------------------------|------------------------||

Solo (Play over intro chords)                     16x
|--5------5--5-----5--5-----||---5--5------5--5-------||--5------5--------|
|--5------5--5-----5--5-----||---5--5------5--5-------||--5------5-----5--|
|-----7b--------7b-------7--||*--------7b--------7b--*||-----7b-----7--5--|
|---------------------------||*----------------------*||------------------|
|---------------------------||------------------------||------------------|
|---------------------------||------------------------||------------------|

|-----------------------------|
|--(5)b-----5--5--(5)b--5--5--|
|--(5)b-----5--5--(5)b--5--5--|
|--------7--------------------|
|-----------------------------|
|-----------------------------|

----------------------------------------------------------------------------
God Save The Queen
----------------------------------------------------------------------------

INTRO
                                x2
|---------------------------------||-------------------------------|
|---------------------------------||-------------------------------|
|---------------------------------||-------------------------------|
|----6/7--7--7------7--7--7-------||----6/7--7--7--6/7--7--7-------|
|----6/7--7--7------7--7--7-------||----6/7--7--7--6/7--7--7-------|
|----4/5--5--5------5--5--5-------||----4/5--5--5--4/5--5--5-------|

|---------------------------------|
|---------------------------------|
|---------------------------------|
|----6/7--7--7------7--7--7-------|
|----6/7--7--7------7--7--7-------|
|----4/5--5--5------5--5--5-------|

PRE-VERSE
                                          x3                                x2
|---------------------------------------------||---------------------------------|
|---------------------------------------------||---------------------------------|
|--------------------------7--7--x--6--7------||---------------------------------|
|--------------------------7--7--x--6--7------||----6/7--7--7------7--7--7-------|
|----7----7--7----7--7--7--5--5--x--4--5------||----6/7--7--7------7--7--7-------|
|----5----5--5----5--5--5---------------------||----4/5--5--5------5--5--5-------|

VERSE  (x2)
                                          x3                                  x2
|----------------------------------------------||---------------------------------|
|----------------------------------------------||---------------------------------|
|-------------------------7--7--7--x--6--7-----||---------------------------------|
|-------------------------7--7--7--x--6--7-----||----6/7--7--7------7--7--7-------|
|----7--7--7--7--7--7--7--5--5--5--x--4--5-----||----6/7--7--7------7--7--7-------|
|----5--5--5--5--5--5--5-----------------------||----4/5--5--5------5--5--5-------|
     pm.................

CHORUS  (x2)

|------------------------------------------||-----------------------------------|
|------------------------------------------||-----------------------------------|
|----9--9----------8/9--9--9--8/9--9--9----||----9--9----------8/9----9----9----|
|----9--9--9--9----8/9--9--9--8/9--9--9----||----9--9--9--9----8/9----9----9----|
|----7--7--9--9----6/7--7--7--6/7--7--7----||----7--7--9--9----6/7----7----7----|
|----------7--7----------------------------||----------7--7---------------------|

PRE-VERSE II  ("God save the queen...")
                                          x2
|---------------------------------------------|
|---------------------------------------------|
|--------------------------7--7--x--6--7------|
|--------------------------7--7--x--6--7------|
|----7----7--7----7--7--7--5--5--x--4--5------|
|----5----5--5----5--5--5---------------------|
                                                                   3rd time
|-------------------------------------------------------------------------------|
|-------------------------------------------------------------------------------|
|--------------------------9--9--9--9----9--9--9-----------DRUMS----------------|
|--------------------------9--9--9--9----9--9--9-----------SOLO-----------------|
|----7----7--7----7--7--7--7--7--7--7----7--7--7--7-----------------------------|
|----5----5--5----5--5--5-------------------------5-----------------------4~~~~~|

VERSE (x2)
CHORUS (x2)
PRE-VERSE II

SOLO (PLAYED OVER F#5 AND B5)
                                             x4
|--------2-2-2---------------------------------|
|----1/2-2-2-2--------4----4--5h4--5h4---x-----|
|---------------------4----4--4----4-----x-----|
|-----------------4-4-4----4--4----4-----x-----|
|----------------------------------------------|
|----------------------------------------------|

PRE-VERSE II

OUTRO ("NO FUTURE !!!!!!!!" ...)  (x3)
                                       x3    Only th 1st and 2nd times, 3rd time : INTRO
|----------------------------------------|  |---------------------------------|
|----------------------------------------|  |---------------------------------|
|----7----7----7-7-7-7--6----4-----------|  |---------------------------------|
|----7----7----7-7-7-7--6----4-----------|  |----7-7-7-x-7---x-7---7---x-7----|
|----5----5----5-5-5-5--4----2-----------|  |----7-7-7-x-7---x-7---7---x-7----|
|----------------------------------------|  |----5-5-5-x-5---x-5---5---x-5----|

INTRO

----------------------------------------------------------------------------
17
----------------------------------------------------------------------------

the verse goes...

e|-------------------------------------|
B|----------22222222-------------------|
G|-11111111-22222222-11111111----------|
D|-22222222-22222222-22222222-11111111-|
A|-22222222-00000000-22222222-22222222-|
E|-00000000----------00000000-22222222-|

...And just repeats over and over...

and then when it comes to the chorus (I'm a lazy sod, a'm a lazy sod...)
it goes like this...

e|-------------------|
B|-22222222----------|
G|-22222222-11111111-| this
D|-22222222-22222222-|  x2
A|-00000000-22222222-|
E|----------00000000-|

and then

e|----------------------------|
B|-22222222-------------------|
G|-22222222-------------------|
D|-22222222-11111111111111111-|
A|-00000000-22222222222222222-|
E|----------22222222222222222-|

Pause 2 bars and then

e|-----------|
B|-----------|
G|--11111111-|
D|--22222222-|
A|--22222222-|
E|--00000000-|

and then repeat chorus...

-------------------------------------------------------------------------
Anarchy In The UK
-------------------------------------------------------------------------

Note: i did not write this tab, it is NOT my work. seeing as it was far more correct
than any of the tabs for this song submitted to UG, i thought it might be good to put
it here.

INTRO:
|e-------------------------------------------------------|
|B-------------------------------------------------------|
|G--12-12-12-12-12-12-12-12-12--10-10-10-10-10-10-10-10--|
|D--12-12-12-12-12-12-12-12-12--10-10-10-10-10-10-10-10--|
|A--10-10-10-10-10-10-10-10-10--8--8--8--8--8--8--8--8---|
|E-------------------------------------------------------|

|e-------------------------------------------------|
|B-------------------------------------------------|
|G--9--7--5-5-5-5-5-5-5-5-5-5-5-5-5-5-5-5-5-5-5-5--|
|D--9--7--5-5-5-5-5-5-5-5-5-5-5-5-5-5-5-5-5-5-5-5--|
|A--7--5--3-3-3-0-3-3-3-0-3-3-3-0-3-3-3-0-3-3-3-0--|
|E-------------------------------------------------|

VERSE:
|e----------------------------------|
|B----------------------------------|
|G--5-5-5-5-5-5-5-5-5-5-5-5-10-9----|
|D--5-5-5-5-5-5-5-5-5-5-5-5-10-9----|
|A--3-3-3-0-3-3-3-0-3-3-3-0-8--7----|
|E----------------------------------|

CHORUS:
|e-----------------------------------------------------|
|B-----------------------------------------------------|
|G--12-12-12-12-12-12-12-12-12-12-12-12-12-12-12-12-12-|
|D--12-12-12-12-12-12-12-12-12-12-12-12-12-12-12-12-12-|
|A--10-10-10-10-10-10-10-10-10-10-10-10-10-10-10-10-10-|
|E-----------------------------------------------------|

|e--------------------------------------------------------|
|B--------------------------------------------------------|
|G-10-10-10-10-10-10-10-10-10-10-10-10-10-10-10-10-10-9-7-|
|D-10-10-10-10-10-10-10-10-10-10-10-10-10-10-10-10-10-9-7-|
|A-8--8--8--8--8--8--8--8--8--8--8--8--8--8--8--8--8--7-5-|
|E--------------------------------------------------------|

|e------------------------------|
|B------------------------------|
|G-5-5-5-5-5-5-5-5-5-5-5-5-10-9-|
|D-5-5-5-5-5-5-5-5-5-5-5-5-10-9-|
|A-3-3-3-0-3-3-3-0-3-3-3-0-8--7-|
|E------------------------------|

SOLO:
|e-----12-----------------|-----14-------------------|
|B-/13----13----------13/-|-/15----15------15----11/-|
|G-----------14~------14/-|-/16-------16~--16-16-12/-|
|D------------------------|--------------------------|
|A------------------------|--------------------------|
|E------------------------|--------------------------|

|e-----12-----------------|-----14-------------------|
|B-/13----13-------13-----|--------15------------11/-|
|G-/14-------14~---14-14/-|-/16-------16~--16\10-12/-|
|D------------------------|--------------------------|
|A------------------------|--------------------------|
|E------------------------|--------------------------|

|E-----12-----------------|-----14-------------------|
|B-/13----13-------13-13/-|-/15----15------15\---11/-|
|G-/14-------14~---14-14/-|-/16-------16~--16\---12/-|
|D------------------------|--------------------------|
|A------------------------|--------------------------|
|E------------------------|--------------------------|

|e-----12--------------------|-----------------------|
|B-/13----13-------13-13\----|----8-8~--/13----13-13-|
|G-/14-------14~---14-14\----|----7-7~------14-14-14-|
|D------------------------7/-|-/9--------------------|
|A---------------------------|-----------------------|
|E---------------------------|-----------------------|

|E------------------------------|-----------------|------------------|
|B-13-15-15-15~-----------------|-----5-3-5-3-----|-/3-----5-5-5-5---|
|G-14-16-16-16~-(16)/19-19\-0-4-|-5-7-5-4-5-4-0---|-/4-0---5-5-5-5---|
|D--------------------------0---|---------------0-|------0-----------|
|A------------------------------|-----------------|----------------0-|
|E------------------------------|-----------------|------------------|

BRIDGE:
|e--2--2---0-2---3---2---0-0h2-2-|
|B--3--3---3-3-3-3---3---3-3---3-|
|G--2--2---2-2-2-2---2---2-2---2-|
|D--0--0---0-0---0---0-----0---0-|
|A-------------------------------|
|E-------------------------------|

The song goes in this order:

Intro
Verse
Chorus
Verse
Chorus
Solo
Verse
Chorus
Bridge
Verse
Chorus (x2)
End.

---------------------------------------------------------------------------
Submission
---------------------------------------------------------------------------

                                 >>-pull string p-pull off Rt-release tension
intro:
e|-------------------------------------------------------|
B|-------------------------------------------------------|
G|--10-))-------8-))-------------------------------------|
D|--10-))-------8-))-------------------------------------|  x1
A|--8--))-------6-))-------------------------------------|
E|-------------------------------------------------------|

mian riff:
e|-------------------------------------------------------|
B|-------------------------------------------------------|
G|--x-x-5-5-x-x-3-3-x-x-8-8-x-x-5-5----------------------|
D|--x-x-5-5-x-x-3-3-x-x-8-8-x-x-5-5----------------------|  x8
A|--x-x-3-3-x-x-1-1-x-x-6-6-x-x-3-3----------------------|
E|-------------------------------------------------------|

chorus:
e|-------------------------------------------------------|
B|-------------------------------------------------------|
G|--8-8-8-8-8-8-8-8/-10-10-10-10-10-10-10-10-------------|
D|--8-8-8-8-8-8-8-8/-10-10-10-10-10-10-10-10-------------|
A|--6-6-6-6-6-6-6-6/-8--8--8--8--8--8--8--8--------------|
E|-------------------------------------------------------|


e|--------8p6--------------------------------------------|
B|-------------------------------------------------------|
G|--9>>10-----8*10Rt\\-~5~-------------------------------|
D|-------------------------------------------------------|
A|-------------------------------------------------------|
E|-------------------------------------------------------|

e|-------------------------------------------------------|
B|-------------------------------------------------------|
G|--8-8-8-8-8-8-8-8/-10-10-10-10-10-10-10-10-------------|
D|--8-8-8-8-8-8-8-8/-10-10-10-10-10-10-10-10-------------|
A|--6-6-6-6-6-6-6-6/-8--8--8--8--8--8--8--8--------------|
E|-------------------------------------------------------|

mian riff:
e|-------------------------------------------------------|
B|-------------------------------------------------------|
G|--x-x-5-5-x-x-3-3-x-x-8-8-x-x-5-5----------------------|
D|--x-x-5-5-x-x-3-3-x-x-8-8-x-x-5-5----------------------|  x6
A|--x-x-3-3-x-x-1-1-x-x-6-6-x-x-3-3----------------------|
E|-------------------------------------------------------|

chorus:
e|-------------------------------------------------------|
B|-------------------------------------------------------|
G|--8-8-8-8-8-8-8-8/-10-10-10-10-10-10-10-10-------------|
D|--8-8-8-8-8-8-8-8/-10-10-10-10-10-10-10-10-------------|
A|--6-6-6-6-6-6-6-6/-8--8--8--8--8--8--8--8--------------|
E|-------------------------------------------------------|


e|--------8p6--------------------------------------------|
B|-------------------------------------------------------|
G|--9>>10-----8*10Rt\\-~5~-------------------------------|
D|-------------------------------------------------------|
A|-------------------------------------------------------|
E|-------------------------------------------------------|

e|-------------------------------------------------------|
B|-------------------------------------------------------|
G|--8-8-8-8-8-8-8-8/-10-10-10-10-10-10-10-10-------------|
D|--8-8-8-8-8-8-8-8/-10-10-10-10-10-10-10-10-------------|
A|--6-6-6-6-6-6-6-6/-8--8--8--8--8--8--8--8--------------|
E|-------------------------------------------------------|

bridge:
e|-------------------------------------------------------|
B|-------------------------------------------------------|
G|--x-x-5-5-x-x-3-3-x-x-8-8-x-x-5-5----------------------|
D|--x-x-5-5-x-x-3-3-x-x-8-8-x-x-5-5----------------------|  x2
A|--x-x-3-3-x-x-1-1-x-x-6-6-x-x-3-3----------------------|
E|-------------------------------------------------------|

riff A:
e|-------------------------------------------------------|
B|-------------------------------------------------------|
G|--10-))--------5-))--------10-))----8-))---------------|
D|--10-))--------5-))--------10-))----8-))---------------|
A|---8-))--------3-))---------8-))----6-))---------------|
E|-------------------------------------------------------|

bridge:
e|-------------------------------------------------------|
B|-------------------------------------------------------|
G|--x-x-5-5-x-x-3-3-x-x-8-8-x-x-5-5----------------------|
D|--x-x-5-5-x-x-3-3-x-x-8-8-x-x-5-5----------------------|  x2
A|--x-x-3-3-x-x-1-1-x-x-6-6-x-x-3-3----------------------|
E|-------------------------------------------------------|

riff B:
e|-------------------------------------------------------|
B|-------------------------------------------------------|
G|--5-5-5-5//-3-3-3-3//-8-8-8-8//-5-5-5-5----------------|
D|--5-5-5-5//-3-3-3-3//-8-8-8-8//-5-5-5-5----------------|  x4
A|--3-3-3-3//-1-1-1-1//-6-6-6-6//-3-3-3-3----------------|
E|-------------------------------------------------------|

chorus:
e|-------------------------------------------------------|
B|-------------------------------------------------------|
G|--8-8-8-8-8-8-8-8/-10-10-10-10-10-10-10-10-------------|
D|--8-8-8-8-8-8-8-8/-10-10-10-10-10-10-10-10-------------|
A|--6-6-6-6-6-6-6-6/-8--8--8--8--8--8--8--8--------------|
E|-------------------------------------------------------|


e|-------------------------------------------------------|
B|-------------------------------------------------------|
G|--9>>10----9>>10--9>>10--9>>~10~-----------------------|
D|-------------------------------------------------------|
A|-------------------------------------------------------|
E|-------------------------------------------------------|

e|-------------------------------------------------------|
B|-------------------------------------------------------|
G|--8-8-8-8-8-8-8-8/-10-10-10-10-10-10-10-10-------------|
D|--8-8-8-8-8-8-8-8/-10-10-10-10-10-10-10-10-------------|
A|--6-6-6-6-6-6-6-6/-8--8--8--8--8--8--8--8--------------|
E|-------------------------------------------------------|

bridge:
e|-------------------------------------------------------|
B|-------------------------------------------------------|
G|--x-x-5-5-x-x-3-3-x-x-8-8-x-x-5-5----------------------|
D|--x-x-5-5-x-x-3-3-x-x-8-8-x-x-5-5----------------------|  x2
A|--x-x-3-3-x-x-1-1-x-x-6-6-x-x-3-3----------------------|
E|-------------------------------------------------------|

riff c:
e|-------------------------------------------------------|
B|-------------------------------------------------------|
G|--10---10--10-10-10------------------------------------|
D|--10---10--10-10-10------------------------------------|
A|---8----8---8--8--8------------------------------------|
E|-------------------------------------------------------|

e|--------8p6-6>>7-8-------------------------------------|
B|-------------------------------------------------------|
G|--9>>10------------8*10Rt\\-~5~------------------------|
D|-------------------------------------------------------|
A|-------------------------------------------------------|
E|-------------------------------------------------------|


e|-------------------------------------------------------|
B|-------------------------------------------------------|
G|--10-))----8-))----------------------------------------|
D|--10-))----8-))----------------------------------------|
A|---8-))----6-))----------------------------------------|
E|-------------------------------------------------------|

mian riff:
e|-------------------------------------------------------|
B|-------------------------------------------------------|
G|--x-x-5-5-x-x-3-3-x-x-8-8-x-x-5-5----------------------|
D|--x-x-5-5-x-x-3-3-x-x-8-8-x-x-5-5----------------------|  x6
A|--x-x-3-3-x-x-1-1-x-x-6-6-x-x-3-3----------------------|
E|-------------------------------------------------------|

chorus:
e|-------------------------------------------------------|
B|-------------------------------------------------------|
G|--8-8-8-8-8-8-8-8/-10-10-10-10-10-10-10-10-------------|
D|--8-8-8-8-8-8-8-8/-10-10-10-10-10-10-10-10-------------|
A|--6-6-6-6-6-6-6-6/-8--8--8--8--8--8--8--8--------------|
E|-------------------------------------------------------|


e|-------------------------------------------------------|
B|-------------------------------------------------------|
G|--9>>10--9>>10--9>>~10~--------------------------------|
D|-------------------------------------------------------|
A|-------------------------------------------------------|
E|-------------------------------------------------------|

e|-------------------------------------------------------|
B|-------------------------------------------------------|
G|--8-8-8-8-8-8-8-8/-10-10-10-10-10-10-10-10-------------|
D|--8-8-8-8-8-8-8-8/-10-10-10-10-10-10-10-10-------------|
A|--6-6-6-6-6-6-6-6/-8--8--8--8--8--8--8--8--------------|
E|-------------------------------------------------------|

outro:
e|-------------------------------------------------------|
B|-------------------------------------------------------|
G|--x-x-5-5-x-x-3-3--------------------------------------|
D|--x-x-5-5-x-x-3-3--------------------------------------|  x24
A|--x-x-3-3-x-x-1-1--------------------------------------|
E|-------------------------------------------------------|


e|-------------------------------------------------------|
B|-------------------------------------------------------|
G|--5--3--5-x-x-5-))-------------------------------------|
D|--5--3--5-x-x-5-))-------------------------------------|  x1
A|--3--1--3-x-x-3-))-------------------------------------|
E|-------------------------------------------------------|

       \\-slide down
Tuning:EADGBE                    ))- let ring   x-x-mute string
                                 *-start on the fret before the* but pulled
                                 up so it sounds like the fret after the *
                                 >>-pull string p-pull off Rt-release tension

----------------------------------------------------------------------------
Pretty Vacant
----------------------------------------------------------------------------

Intro Riff  -  Repeated as heard

e|----------------------------|----------------------|
B|----------------------------|----------------------|
G|----------2--2--------------|--------2-2-----------|
D|----------------------2--2--|------------------2-2-|
A|----0--0--------0--0--------|--0-0-------0-0-------|
E|----------------------------|----------------------|

Verse - Listen to track for timing etc
e|----------------------------------------------------|
B|------------5---9-----------------------------------|
G|------------5---9-------9---------------------------|
D|----7---5---5---9---5---9---------------------------|
A|----7---5---7---7---5---7---------------------------|
E|----5---3-----------3-------------------------------|

Chorus - Again listen for formation
e|-------------------------------------------------|
B|-------------------------------------------------|
G|----7---5----------------------------------------|
D|----7---5---7------------------------------------|
A|----5---3---7------------------------------------|
E|------------5------------------------------------|


    Amaj    Gmaj    Dmaj    Emaj    Cmaj
e|---5---|---3---|-------|-------|-------|
B|---5---|---3---|---7---|---9---|---5---| Full Chords
G|---6---|---4---|---7---|---9---|---5---| used through
D|---7---|---5---|---7---|---9---|---5---| the track
A|---7---|---5---|---5---|---7---|---3---|
E|---5---|---3---|-------|-------|-------|

----------------------------------------------------------------------------
New York
----------------------------------------------------------------------------

intro:  F# A E     B

verse
B    A     B      A
Animation from New York
You're made in Japan from cheese and chalk
Your hippy tarts hero cos you put on a bad show
Put on a bad show
   D       B
oh don't it show

chorus
E                     F# A E
Still out on those pills
        B   A    B  A  B  A  B
do you remember

second verse
you thinks it's swell playing Max's Kansas
You're looking bored you're acting flash
With nothing in your gut you better keep your mouth shut
Keep your mouth shut
In a rut

second chorus
Still out on those pills
Do the sambo

bridge
E          D             B        G
Four years on you still look the same
E               D          G
I think about time you changed your brain
You're just a pile of shit you're coming to this
E                     F#
Ya poor little faggot
F#                   B A  B A  B A
you're sealed with a kiss

solo:  B A  x12

third verse
Thinks its swell playing Japan
Everybody knows Japan is a dishpan
You're just a pile of shit you're coming to this
You poor little faggot
you're sealed with a kiss

second bridge
E                  A                    F#
Still out on those pills cheap thrills Anadins
F#                        A                 E
Apros anything you're condemned to eternal bullshit
E                    B  E
you're sealed with a kiss

outro:   B E  to end

----------------------------------------------------------------------------
EMI
----------------------------------------------------------------------------

Intro

 F# // //// /// // //// // //    B / // /    F# / // //   G#/
------------------------------|-------------------------------------------|
------------------------------|-------------------------------------------|
--11--------------------------|--4----------------------------------------|
--11----------%-----%-----%---|--4-----%-------4-----%------6-------------|
--9---------------------------|--2-------------4------------6-------------|
------------------------------|----------------2------------4-------------|
      4 bars                  |             4 bars
                              |
------------------------------|------------------------------------------|
------4------4-4------%-------|------------------------------------------|
----------------------%-------|--2-2-1-2-4-2-1---------------------------|
---2-----2-2------------------|----------------2--2-2--2-2---4-----------|

Last time without G#

First verse

There  is unlimited supply

Palm Mute

  B                    F#
------------------------------------------------------------------------|
------------------------------------------------------------------------|
------------------------------------------------------------------------|
--4-----------%---------------------------------------------------------|
--2--------------------4------------------------------------------------|
-----------------------2------------------------------------------------|


------------------------------------------------------------------------|
--------------%--------2------------------------------------------------|
--2---------------------------------------------------------------------|
------------------------------------------------------------------------|

                                       Same for the rest of the verse

and there is no reason why
I tell you it was all a frame
                                           E

they only did it cos of fame              Who?

<....P.M ...........................>
------------------------------------------------------------------------|
------------------------------------------------------------------------|
--------------------------------------------9-9-9-----------------------|
--4-----------%-----------------------------9-9-9-----------------------|
--2--------------------4--------------------7-7-7-----------------------|
-----------------------2------------------------------------------------|


------------------------------------------------------------------------|
--------------%--------4------------------------------------------------|
--2-----------------------------------------7-7-7-----------------------|
------------------------------------------------------------------------|


chorus
   B            E       B                    F#

E  M I             EMI

----------------------------- |---------------2-4-2---------------------|
----------------------------- |---------------2-4-2---------------------|
----------------9-9-9-------  |-----------------------------------------|
---9----------%-9-9-9---9---- |-----------------------------------------|
---9------------7-7-7---9---- |-----------------------------------------|
---7--------------------7---- |-----------------------------------------|
                       Repeat |..then after the
                              |       last one
----------------------------- |-----------------------------------------|
--------------%-------------- |-----------------------------------------|
----------------7-7-7-------- |-----------------------------------------|
-6-7-7-7----------------6-7-7 |---------------2-4-2---------------------|

second verse
  too many people had the suss
  B                    F#                 G#
------------------------------------------------------------------------|
------------------------------------------------------------------------|
-(4)--------------------------------------------------------------------|
--4-----------%-------(4)-----------(4)--(6)----------------------------|
--2--------------------4-------------4-4--6-----------------------------|
-----------------------2-------------2-2--4-----------------------------|


------------------------------------------------------------------------|
--------------%---------------------------------------------------------|
--2---------------------------------------------------------------------|
-----------------------2-------------2-2--4-----------------------------|


too many people support us
An unlimited amount
Too many outlets in and out Who?

chorus

bridge

And sir and friends are crucified a day they wish that we had died
C#                          G#      C#        A                B
---------------------------------------------------------------------------|
-----------------------------------------------------------------7---------|
6------------------------------------6-----------------------8-------8-----|
-----------------------------6----------------7----------------------------|
---------------------------------------------------------------------------|
---------------------------------------------------------------------------|
                                                             ^Let ring^

-------------------------------------------------------------------------|
-------------------------------------4-----------------------------------|
4----------------------------------------------------------------7-------|
------------------------------4---------------5--------------------------|

We are an addition        We are ruled by none
C#             G#     G                    F#
------------------------------------------------------------------------|
------------------------------------------------------------------------|
6-----------------------------------------------------------------------|
----------------6-----5---------------------4---------------------------|
------------------------------------------------------------------------|
------------------------------------------------------------------------|


------------------------------------------------------------------------|
------------------------------------------------------------------------|
4-----------------------------------------------------------------------|
---------------4------3---------------------2---------------------------|
F

Never ever ever
F#


Solo:  One of the greatest guitar solos EVER (and I did listen to Van Halen
and Steve Vai).
B                     D#   C#     B
7-7-7----7-7-7---7------------------------------------------------------|
------7--------7--------------------------------------------------------|
-----------------------8~---6-6-----------------------------------------|
-----------------------------------9-9-----------------REPEAT-----------|
------------------------------------------------------------------------|
------------------------------------------------------------------------|
                       ^
                       Vibrato
------------------------------------------------------------------------|
------------------------------------------------------------------------|
-----------------------6----4-4----2-2------------------REPEAT----------|
----6-7-7-7--6-7-7-7----------------------------------------------------|


Third verse
   (Guitar plays full chords B on VII fret and F# on II fret. )
   (Bass plays the same figure as in the first verse .)


And you thought that we were faking that we were all just money making
You do not believe we're for real or would just lose our cheap appeal

Fourth verse
Dont' judge a book just by the cover unless you cover just another
And blind acceptance is a sign Of fucking fools who stand in line

chorus

second bridge   (Same chords as in the first verse picked differently)

Unlimited edition with an unlimited supply
that was the only reason we all had to say goodbye
                                      ^
                              Bass:    slide up from the 2nd fret on
                                                                 the E
                                                                 string.
outro (w/ad-lib, repeat until end)
       E    B

--------------------------------------------------------------------

As you can see, most of that was compiling other tabs, to make it easier.
comments
print report bad tab
10 comments total. Showing first comments.
0 reply
neidnarb11890 wrote on July 12 2006, 03:40 pm

"Bodies" is upside down. You may want to fix that.

0 reply
wangmaster wrote on July 12 2006, 03:41 pm

yea

-2 reply
wangmaster wrote on July 13 2006, 04:14 pm

the song is a pile of wank anyways

I want to post or [tab]
guest
You may want to rate the tab now too:
select rating
Please do not post tabs as comments. Select "correction" instead!