Oops, an error
Loading. Please wait.

A Fire In Babylon Tab

ver1
ver1

Whole song

Interactive

More versions @911Tabs.com
5,779 views 6 this week
7 commentsread comments
1 2 3 4 5
worth learning
x 5
Autoscroll
+/-
esc
set tempo
stop
Contributor
Difficulty
Tuning
intermediate
C G C F A D
Hey! There's an official Ultimate Guitar app which is ideal
for learning songs when you're away from computer. Get the app
WARNING: You are trying to view
                                    content from Ultimate-Guitar.com
                                    in an unauthorized application,
                                    which is prohibited.

                                    Please use an official Ultimate
                                    Guitar Tabs application for iPhone,
                                    iPad or Android to access legitimate
                                    chords, guitar, bass, and drum tabs
                                    from Ultimate-Guitar.com database.

                                    Type "ultimate guitar tabs" in Apple
                                    App Store's or Android Market's
                                    search to find the application.
----------------------------------------------------------------------------
                            Shadows Fall
                         A Fire In Babylon         Drop C     CGCFAD
----------------------------------------------------------------------------



|-------------------|-------------------|-------------|--------------|
|-------------------|-------------------|-------------|--------------|
|---9----------7----|---9----------7----|---7---------|----7---------|
|-7---9-10---9---10-|-7---9-10---9---10-|-----7-7-9-7-|------7-7-9-7-|
|-------------------|-------------------|-8-----------|-10-----------|
|-------------------|-------------------|-------------|--------------|


|-------------------|-------------------|-------------|--------------|
|-------------------|-------------------|-------------|--------------|
|---9----------7----|---9----------7----|---7---------|----7---------|
|-7---9-10---9---10-|-7---9-10---9---10-|-----7-7-9-7-|------7-7-9-7-|
|-------------------|-------------------|-8-----------|-10-----------|
|-------------------|-------------------|-------------|--------------|


|-------------------|-------------------|-----------------|------------|
|-------------------|-------------------|-----------------|------------|
|---9----------7----|---9----------7----|---7-------------|--7---------|
|-7---9-10---9---10-|-7---9-10---9---10-|-----7-7-9-7-----|----7-7-9-7-|
|-------------------|-------------------|-8------------10-|------------|
|-------------------|-------------------|-----------------|------------| X2


|-------------------|-------------------|-----------------|
|-------------------|-------------------|-----------------|
|-------------------|-/9--------------7-|-5-------------4-|
|-7---------------9-|-------------------|-----------------|
|-------------------|-/7--------------5-|-3-------------2-|
|-5---------------7-|-------------------|-----------------|


|-------------------|
|-------------------|
|-3-----------------|
|-------------------|
|-5-----------------|
|-------------------|


|-----------------|---------------------|------------------|
|-----------------|---------------------|------------------|
|-----------------|---------------------|------------------|
|-----7-x-7-------|---------------------|------------------|
|-----------8-----|-10-x-10-7-----------|-----8-x-8--------|
|-0-x---------0-0-|-----------8-x-x-0-0-|-0-x-------10-0-0-|

|---------------------|
|---------------------|
|---------------------|
|-10-x-10-7-------7-x-|
|-----------8-x-8-----|


|-----------------|-----------------------|------------------|
|-----------------|-----------------------|------------------|
|-----------------|-----------------------|------------------|
|---------7-------|-----------------------|------------------|
|-----0-x---8-----|-10-x-10-8-7-8---------|-----8-x-8--------|
|-0-x---------0-0-|---------------0-0-0-0-|-0-x-------10-0-0-|

|---------------------|
|---------------------|
|---------------------|
|-10-x-10-7-------7-x-|
|-----------8-x-8-----|


|-----------------|---------------------|------------------|
|-----------------|---------------------|------------------|
|-----------------|---------------------|------------------|
|-----7-x-7-------|---------------------|------------------|
|-----------8-----|-10-x-10-7-----------|-----8-x-8--------|
|-0-0---------0-0-|-----------8-x-x-0-0-|-0-x-------10-0-0-|

|---------------------|
|---------------------|
|---------------------|
|-10-x-10-7-------7---|
|-----------8-x-8---0-|  X4


|---------------------0-|
|---------------------0-|
|-2---4---5---7---------|
|-2---4---5---7---2-----|
|-0---2---3---5---2-----|  X4
|-----------------0-----|


|-----------------------------------------|
|-----------------------------------------|-------------------|
|-----------------------------------------|                   |
|-----------------------------------------|                   |
|-8-------7---10---8-------7-8-------7-10-|                   |
|---0-0-0---0----0---0-0-0-----0-0-0------|                   |
                                                              |
|---------------------------------------------------------|   |
|---------------------------------------------------------|   |
|---------------------------------------------------------|   |
|---------------------------------------------------------|   |
|-7-5-------7-5-------8-5-----7-5-------7-5-------8-5-----|   |
|-----0-0-0-----0-0-0-----0-0-----0-0-0-----0-0-0-----0-0-|   |
                                                              |
|-----------------------------------------|                   |-----X2
|-----------------------------------------|                   |
|-----------------------------------------|                   |
|-----------------------------------------|                   |
|-8-------7---10---8-------7-8-------7-10-|                   |
|---0-0-0---0----0---0-0-0-----0-0-0------|                   |
                                                              |
|---------------------------------------------------------|   |
|---------------------------------------------------------|   |
|---------------------------------------------------------|   |
|---------------------------------------------------------|   |
|-7-5-------7-5-------8-5-----7-5-------8-5-------7-5-----|   |
|-----0-0-0-----0-0-0-----0-0-----0-0-0-----0-0-0-----0-0-|---| 


|-------------|------------------------|------------------------|
|-------------|------------------------|----------------------0-|
|-------------|------------------------|---------------------0--|
|-7-7---5---7-|-3--3-2---3-2-0---3-2-3-|-3--3-2---3-2-0-2---0---|
|-7-7---5---7-|-3--------------3-------|-3-----------------2----|
|-5-5---3---5-|-1------3---------------|-1------3---------3-----|


|------------------------|------------------------------|
|------------------------|------------------------------|
|------------------------|------------------------------|
|-3--3-2---3-2-0---3-2-3-|-3----------5--2--------------|
|-3--------------3-------|-3----------5--2--------------|
|-1------3---------------|-1--1-1-1-1-3--0--0-0-0-0-0-0-|

|------------------------|------------------------|
|------------------------|----------------------0-|
|------------------------|---------------------0--|
|-3--3-2---3-2-0---3-2-3-|-3--3-2---3-2-0-2---0---|
|-3--------------3-------|-3-----------------2----|
|-1------3---------------|-1------3---------3-----|


|------------------------|-------------------------------------------|
|------------------------|-------------------------------------------|
|------------------------|-------------------------------------------|
|-3--3-2---3-2-0---3-2-3-|-3----------5--2-----------------3-------5-|
|-3--------------3-------|-3----------5--2-----------------3-------5-|
|-1------3---------------|-1--1-1-1-1-3--0--0-0-0-0-0-0--0-1-1-1-1-3-|

|--------------|
|--------------|
|----------9-7-|
|-9-10-9-7-----|
|--------------|
|--------------|

|-----------------|---------------------|------------------|
|-----------------|---------------------|------------------|
|-----------------|---------------------|------------------|
|-----7-x-7-------|---------------------|------------------|
|-----------8-----|-10-x-10-7-----------|-----8-x-8--------|
|-0-0---------0-0-|-----------8-x-x-0-0-|-0-x-------10-0-0-|

|---------------------|
|---------------------|
|---------------------|
|-10-x-10-7-------7---|
|-----------8-x-8---0-|  X4


|---------------------0-|
|---------------------0-|
|-2---4---5---7---------|
|-2---4---5---7---2-----|
|-0---2---3---5---2-----|  X4
|-----------------0-----|


|-----------------------------------------|
|-----------------------------------------|-------------------|
|-----------------------------------------|                   |
|-----------------------------------------|                   |
|-8-------7---10---8-------7-8-------7-10-|                   |
|---0-0-0---0----0---0-0-0-----0-0-0------|                   |
                                                              |
                                                              |
|---------------------------------------------------------|   |
|---------------------------------------------------------|   |
|---------------------------------------------------------|   |
|---------------------------------------------------------|   |
|-7-5-------7-5-------8-5-----7-5-------7-5-------8-5-----|   |
|-----0-0-0-----0-0-0-----0-0-----0-0-0-----0-0-0-----0-0-|   |
                                                              |-----X2
|-----------------------------------------|                   |
|-----------------------------------------|                   |
|-----------------------------------------|                   |
|-----------------------------------------|                   |
|-8-------7---10---8-------7-8-------7-10-|                   |
|---0-0-0---0----0---0-0-0-----0-0-0------|                   |
                                                              |
|---------------------------------------------------------|   |
|---------------------------------------------------------|   |
|---------------------------------------------------------|   |
|---------------------------------------------------------|   |
|-7-5-------7-5-------8-5-----7-5-------8-5-------7-5-----|   |
|-----0-0-0-----0-0-0-----0-0-----0-0-0-----0-0-0-----0-0-|---| 

                        
|-------------|------------------------|------------------------|
|-------------|------------------------|----------------------0-|
|-------------|------------------------|---------------------0--|
|-7-7---5---7-|-3--3-2---3-2-0---3-2-3-|-3--3-2---3-2-0-2---0---|
|-7-7---5---7-|-3--------------3-------|-3-----------------2----|
|-5-5---3---5-|-1------3---------------|-1------3---------3-----|


|------------------------|------------------------------|
|------------------------|------------------------------|
|------------------------|------------------------------|
|-3--3-2---3-2-0---3-2-3-|-3----------5--2--------------|
|-3--------------3-------|-3----------5--2--------------|
|-1------3---------------|-1--1-1-1-1-3--0--0-0-0-0-0-0-|

|------------------------|------------------------|
|------------------------|----------------------0-|
|------------------------|---------------------0--|
|-3--3-2---3-2-0---3-2-3-|-3--3-2---3-2-0-2---0---|
|-3--------------3-------|-3-----------------2----|
|-1------3---------------|-1------3---------3-----|

|------------------------|-------------------------------------------|
|------------------------|-------------------------------------------|
|------------------------|-------------------------------------------|
|-3--3-2---3-2-0---3-2-3-|-3----------5--2-----------------3-------5-|
|-3--------------3-------|-3----------5--2-----------------3-------5-|
|-1------3---------------|-1--1-1-1-1-3--0--0-0-0-0-0-0--0-1-1-1-1-3-|

|--------------|
|--------------|
|----------9-7-|
|-9-10-9-7-----|
|--------------|
|--------------|

|------------------------------------|
|------------------------------------|
|------------------------------------|
|-2---/5-------5-7-5-4-------4-5-4-2-|
|-0----------------------------------|
|------------------------------------|


|---------------------------------------5-----|
|-----------------------------------------5---|
|-------------------------------------------5-|
|-2---/5-------5-7-5-4-------4-5--4-----------|
|-0-------------------------------------------|     X2
|---------------------------------------------|


|---------------|
|---------------|
|---------------|
|-7---7---7---7-|
|-7---7---7---7-|
|-5---5---5---5-|


|----------------------|---------------------|---------------6-|-5-5-6-5---|
|---5-6-8--6--5-6--5---|----------5--6-5-----|---5-6-8-6-5-6---|---------8-|
|-7------------------7-|-5---5-7-5-------7-5-|-7---------------|-----------|
|----------------------|---------------------|-----------------|-----------|
|----------------------|---------------------|-----------------|-----------|
|----------------------|---------------------|-----------------|-----------|

|------5-6-5---5-------------------5-6--5---10--8---8-10-8----|
|-6--8-------8---8-6--5------6---8--------8----------------11-|
|-------------------------------------------------------------|
|-------------------------------------------------------------|
|-------------------------------------------------------------|
|-------------------------------------------------------------|

|-----------------6--5-----|------------------------------|
|------5-6-------------6---|------3--5-3---------3--5-3---|
|----------7-------------7-|-------------5--------------2-|
|------------7---8---------|------------------------------|
|-5-5-5---------8----------|-3-3-3---------4-4-4----------|
|--------------6-----------|------------------------------|

|-----------------6--5---|--------0-1-0-----------0----|
|------5--6-----------6--|-----------------------3-3---|
|----------7-----------7-|-----------------------------|
|-----------7---8--------|-3-3-3-3------3-2-2-2-2----2-|
|-5-5-5--------8---------|-----------------------------|   X2
|-------------6----------|-----------------------------|

|-----------------------|-------------------|-------------------|
|-----------------------|-------------------|-------------------|
|-7--7----------7-------|-----------------5-|-5---------5-----6-|
|-7--7----------7-----8-|-8---------8-----5-|-5---------5-----7-|
|-5--5--5-5-5-5-5-5-5-8-|-8---------8-----3-|-3-3-3-3-3-3-3-3-4-|
|---------------------6-|-6-6-6-6-6-6-6-6---|-------------------|

|-----------------|
|-----------------|
|-6-------6-----7-|
|-7-------7-----7-|
|-4-4-4-4-4-4-4-5-|
|-----------------|

|-------------------|-------------------|-------------------|
|-------------------|-------------------|-------------------|
|-7---------7-------|-------------------|-----------------5-|
|-7---------7-----8-|-8---------8-----3-|-3---------3-----5-|
|-5-5-5-5-5-5-5-5-8-|-8---------8-----3-|-3---------3-----3-|
|-----------------6-|-6-6-6-6-6-6-6-6-1-|-1-1-1-1-1-1-1-1---|

|-----------------|
|-----------------|
|-5---------5--5--|
|-5---------5--5--|
|-3-3-3-3-3-3--3--|
|-----------------|   X2



HAVNT FIGURED OUT GUITAR SOLO YET!!! SORRRY


|------------------------------------|
|------------------------------------|
|------------------------------------|
|-2---/5-------5-7-5-4-------4-5-4-2-|
|-0----------------------------------|
|------------------------------------|


|---------------------------------------5-----|
|-----------------------------------------5---|
|-------------------------------------------5-|
|-2---/5-------5-7-5-4-------4-5--4-----------|
|-0-------------------------------------------|     X2
|---------------------------------------------|


|--------------------------|---------------------------|
|---5----------------------|---------------------------|
|-----4-5--4-5-7--5-4-5--4-|---7---4---4-5--4---4--5/7-|
|-7------------------------|-5---7---7--------7--------|
|--------------------------|---------------------------|
|--------------------------|---------------------------|

|-----------------------------------------|--------------------------|
|--10-12-13--12-10-13-15-13-12-13---12-10-|--------------------------|
|-9---------------------------------------|-------7------7-9-7--7----|
|-----------------------------------------|-7-9-10--10-9------10--10-|
|-----------------------------------------|--------------------------|
|-----------------------------------------|--------------------------|

|--------------------------|----------------------------|
|---8----------6-----------|---6---3----3-5--3---3--5/6-|
|-5---7-9--7-9----9-7-9--7-|-4---5----5--------5--------|
|--------------------------|----------------------------|
|--------------------------|----------------------------|
|--------------------------|----------------------------|

|-------------------------------------------|
|----13-15-17--15-13-17-18-17-15-17---15-13-|
|-12----------------------------------------|
|-------------------------------------------|
|-------------------------------------------|
|-------------------------------------------|

|-------------------------------------------------------|
|-------6-----6-8-6---6---------------------------------|
|-5-7-9---9-7-------9----9---2--4--5--7-----------------|
|----------------------------2--4--5--7--3--5--10--9--7-|
|----------------------------0--2--3--5--3--5--10--9--7-|
|----------------------------------------1--3--8---7--5-|
comments
print report bad tab
7 comments total. Showing first comments. show 1 bad comment
+2 reply
Jeff-619 wrote on September 1 2007, 10:23 pm

Great Tab dude 4 Stars.

+2 reply
Jdfs1 wrote on February 12 2008, 09:07 pm

ya, nice tab... u coulda put the harmonics but we can get over it and do it ourselves-- 5 stars by the way

I want to post or [tab]
guest
You may want to rate the tab now too:
select rating
Please do not post tabs as comments. Select "correction" instead!