Oops, an error
Loading. Please wait.

Bark At The Moon Tab

ver1
ver1

Whole song

Interactive

More versions @911Tabs.com
2,309 views 9 this week
no commentswrite comment
1 2 3 4 5
excellent!
x 2
Autoscroll
+/-
esc
set tempo
stop
Contributor
Difficulty
Tuning
advanced
D A D G B E
Hey! There's an official Ultimate Guitar app which is ideal
for learning songs when you're away from computer. Get the app
WARNING: You are trying to view
                                    content from Ultimate-Guitar.com
                                    in an unauthorized application,
                                    which is prohibited.

                                    Please use an official Ultimate
                                    Guitar Tabs application for iPhone,
                                    iPad or Android to access legitimate
                                    chords, guitar, bass, and drum tabs
                                    from Ultimate-Guitar.com database.

                                    Type "ultimate guitar tabs" in Apple
                                    App Store's or Android Market's
                                    search to find the application.
Bark At The Moon
Shadows Fall (Cover)
Redemption
Transcribed by Colton Wood AKA AwokenDEMON


***********
*--Intro--*
***********

                              PM PM PM PM    PM PM PM PM    PM PM  
     H        Q.     E     E  S  S  S  S  E  S  S  S  S  E  S  S   
E||---------------------|-----------------------------------------|
B||---------------------|-----------------------------------------|
G||---------------------|-----------------7--------------7--------|
D||------------------3--|--5--------------5--------------5--------|
A||------------------3--|--5--------------5--------------5--------|
D||------------------3--|--5--5--5--5--5-----5--5--5--5-----5--5--|


  PM PM    PM PM PM PM       PM PM          PM PM PM PM    PM PM PM PM    PM PM  
  S  S  E  S  S  S  S  Q     S  S  E     E  S  S  S  S  E  S  S  S  S  E  S  S   
--------------------------------------|-----------------------------------------|
--------------------------------------|-----------------------------------------|
--------7--------------7--------------|-----------------5--------------5--------|
--------3--------------3~----------1--|--3--------------3--------------3--------|
--------5--------------5~----------1--|--3--------------3--------------3--------|
--5--5-----5--5--5--5--------5--5--1--|--3--5--5--5--5-----5--5--5--5-----5--5--|


  PM PM    PM PM    PM PM    PM PM          PM PM PM PM    PM PM PM PM    PM PM  
  S  S  E  S  S  E  S  S  E  S  S  E     E  S  S  S  S  E  S  S  S  S  E  S  S   
--------------------------------------|-----------------------------------------|
--------------------------------------|-----------------------------------------|
--------3--------2--------3-----------|-----------------7--------------7--------|
--------1--------0--------1--------3--|--5--------------5--------------5--------|
--------1--------1--------1--------3--|--5--------------5--------------5--------|
--5--5-----5--5-----5--5-----5--5--3--|--5--5--5--5--5-----5--5--5--5-----5--5--|


  PM PM    PM PM PM PM       PM PM          PM PM PM PM    PM PM PM PM         
  S  S  E  S  S  S  S  Q     S  S  E     E  S  S  S  S  E  S  S  S  S  E   E   
--------------------------------------|---------------------------------------|
--------------------------------------|---------------------------------------|
--------7--------------7--------------|-----------------5--------------5\--L--|
--------3--------------3~----------1--|--3--------------3--------------3\--L--|
--------5--------------5~----------1--|--3--------------3--------------3\--L--|
--5--5-----5--5--5--5--------5--5--1--|--3--5--5--5--5-----5--5--5--5---------|


                               *************
                               *--Verse 1--*  
                               *************


                                PM PM PM PM    PM PM PM PM    PM PM  
  E  E  E  E  E  E  E  E     E  S  S  S  S  E  S  S  S  S  E  S  S   
--------------------------|-----------------------------------------|
--------------------------|-----------------------------------------|
--------------------------|-----------------7--------------7--------|
-----------------------1--|--5--------------5--------------5--------|
--6--5--6--8--6--5--3--1--|--5--------------5--------------5--------|
--6--5--6--8--6--5--3--1--|--5--5--5--5--5-----5--5--5--5-----5--5--|


  PM PM    PM PM PM PM       PM PM          PM PM PM PM    PM PM PM PM    PM PM  
  S  S  E  S  S  S  S  Q     S  S  E     E  S  S  S  S  E  S  S  S  S  E  S  S   
--------------------------------------|-----------------------------------------|
--------------------------------------|-----------------------------------------|
--------7--------------7--------------|-----------------5--------------5--------|
--------3--------------3~----------1--|--3--------------3--------------3--------|
--------5--------------5~----------1--|--3--------------3--------------3--------|
--5--5-----5--5--5--5--------5--5--1--|--3--5--5--5--5-----5--5--5--5-----5--5--|


  PM PM    PM PM    PM PM    PM PM          PM PM PM PM    PM PM PM PM    PM PM  
  S  S  E  S  S  E  S  S  E  S  S  E     E  S  S  S  S  E  S  S  S  S  E  S  S   
--------------------------------------|-----------------------------------------|
--------------------------------------|-----------------------------------------|
--------3--------2--------3-----------|-----------------7--------------7--------|
--------1--------0--------1--------3--|--5--------------5--------------5--------|
--------1--------1--------1--------3--|--5--------------5--------------5--------|
--5--5-----5--5-----5--5-----5--5--3--|--5--5--5--5--5-----5--5--5--5-----5--5--|


  PM PM    PM PM PM PM       PM PM          PM PM PM PM    PM PM PM PM        
  S  S  E  S  S  S  S  Q     S  S  E     E  S  S  S  S  E  S  S  S  S  E  E   
--------------------------------------|--------------------------------------|
--------------------------------------|--------------------------------------|
--------7--------------7--------------|-----------------5--------------5-----|
--------3--------------3~----------1--|--3--------------3--------------3--L--|
--------5--------------5~----------1--|--3--------------3--------------3--L--|
--5--5-----5--5--5--5--------5--5--1--|--3--5--5--5--5-----5--5--5--5--------|
                               

                           *****************
                           *--Verse Break--*
                           *****************

                                                                                       PM PM  
  E  E  E  E  E  E  E  E     W                   H.           E  E     H        Q.     S  S   
--------------------------|-------------------|---------------------|------------------------|
--------------------------|-------------------|---------------------|------------------------|
--------------------------|-------------------|--5------------L--L--|------------------------|
--------------------------|--2----------------|--5------------L--L--|--0--------L------------|
--6--5--6--8--6--5--3--1--|--2----------------|--3------------L--L--|--0--------L------------|
--6--5--6--8--6--5--3--1--|--2----------------|---------------------|--0--------L------2--2--|


  PM PM PM PM PM PM PM PM PM PM PM PM PM PM PM PM                                          
  S  S  S  S  S  S  S  S  S  S  S  S  S  S  S  S     W                   W                 
--------------------------------------------------|-------------------|-------------------|
--------------------------------------------------|-------------------|-------------------|
--------------------------------------------------|-------------------|--5----------------|
--------------------------------------------------|--2----------------|--5----------------|
--2--2--------3--3--------0--0--------2--2--------|--2----------------|--3----------------|
--------2--2--------2--2--------2--2--------2--2--|--2----------------|-------------------|


                                            ***************
                                            *--Pre Verse--*
                                            ***************


                                                PM PM PM PM    PM PM PM PM    PM PM  
  W                   Q.     H         E     E  S  S  S  S  E  S  S  S  S  E  S  S   
-------------------|----------------------|-----------------------------------------|
-------------------|----------------------|-----------------------------------------|
-------------------|----------------------|-----------------7--------------7--------|
--0----------------|--0---------------/3--|--5--------------5--------------5--------|
--0----------------|--0---------------/3--|--5--------------5--------------5--------|
--0----------------|--0---------------/3--|--5--5--5--5--5-----5--5--5--5-----5--5--|


  PM PM    PM PM PM PM       PM PM          PM PM PM PM    PM PM PM PM    PM PM  
  S  S  E  S  S  S  S  Q     S  S  E     E  S  S  S  S  E  S  S  S  S  E  S  S   
--------------------------------------|-----------------------------------------|
--------------------------------------|-----------------------------------------|
--------7--------------7--------------|-----------------5--------------5--------|
--------3--------------3~----------1--|--3--------------3--------------3--------|
--------5--------------5~----------1--|--3--------------3--------------3--------|
--5--5-----5--5--5--5--------5--5--1--|--3--5--5--5--5-----5--5--5--5-----5--5--|


  PM PM    PM PM    PM PM    PM PM          PM PM PM PM    PM PM PM PM    PM PM  
  S  S  E  S  S  E  S  S  E  S  S  E     E  S  S  S  S  E  S  S  S  S  E  S  S   
--------------------------------------|-----------------------------------------|
--------------------------------------|-----------------------------------------|
--------3--------2--------3-----------|-----------------7--------------7--------|
--------1--------0--------1--------3--|--5--------------5--------------5--------|
--------1--------0--------1--------3--|--5--------------5--------------5--------|
--5--5-----5--5-----5--5-----5--5--3--|--5--5--5--5--5-----5--5--5--5-----5--5--|


  PM PM    PM PM PM PM       PM PM          PM PM PM PM    PM PM PM PM         
  S  S  E  S  S  S  S  Q     S  S  E     E  S  S  S  S  E  S  S  S  S  E   E   
--------------------------------------|---------------------------------------|
--------------------------------------|---------------------------------------|
--------7--------------7--------------|-----------------5--------------5\--L--|
--------3--------------3~----------1--|--3--------------3--------------3\--L--|
--------5--------------5~----------1--|--3--------------3--------------3\--L--|
--5--5-----5--5--5--5--------5--5--1--|--3--5--5--5--5-----5--5--5--5---------|


                            *************
                            *--Verse 2--*
                            *************


                                PM PM PM PM    PM PM PM PM    PM PM  
  E  E  E  E  E  E  E  E     E  S  S  S  S  E  S  S  S  S  E  S  S   
--------------------------|-----------------------------------------|
--------------------------|-----------------------------------------|
--------------------------|-----------------7--------------7--------|
-----------------------1--|--5--------------5--------------5--------|
--6--5--6--8--6--5--3--1--|--5--------------5--------------5--------|
--6--5--6--8--6--5--3--1--|--5--5--5--5--5-----5--5--5--5-----5--5--|


  PM PM    PM PM PM PM       PM PM          PM PM PM PM    PM PM PM PM    PM PM  
  S  S  E  S  S  S  S  Q     S  S  E     E  S  S  S  S  E  S  S  S  S  E  S  S   
--------------------------------------|-----------------------------------------|
--------------------------------------|-----------------------------------------|
--------7--------------7--------------|-----------------5--------------5--------|
--------3--------------3~----------1--|--3--------------3--------------3--------|
--------5--------------5~----------1--|--3--------------3--------------3--------|
--5--5-----5--5--5--5--------5--5--1--|--3--5--5--5--5-----5--5--5--5-----5--5--|


  PM PM    PM PM    PM PM    PM PM          PM PM PM PM    PM PM PM PM    PM PM  
  S  S  E  S  S  E  S  S  E  S  S  E     E  S  S  S  S  E  S  S  S  S  E  S  S   
--------------------------------------|-----------------------------------------|
--------------------------------------|-----------------------------------------|
--------3--------2--------3-----------|-----------------7--------------7--------|
--------1--------0--------1--------3--|--5--------------5--------------5--------|
--------1--------1--------1--------3--|--5--------------5--------------5--------|
--5--5-----5--5-----5--5-----5--5--3--|--5--5--5--5--5-----5--5--5--5-----5--5--|


  PM PM    PM PM PM PM       PM PM          PM PM PM PM    PM PM PM PM        
  S  S  E  S  S  S  S  Q     S  S  E     E  S  S  S  S  E  S  S  S  S  E  E   
--------------------------------------|--------------------------------------|
--------------------------------------|--------------------------------------|
--------7--------------7--------------|-----------------5--------------5-----|
--------3--------------3~----------1--|--3--------------3--------------3--L--|
--------5--------------5~----------1--|--3--------------3--------------3--L--|
--5--5-----5--5--5--5--------5--5--1--|--3--5--5--5--5-----5--5--5--5--------|


                             *****************
                             *--Verse Break--*
                             *****************

                                                                                       PM PM  
  E  E  E  E  E  E  E  E     W                   H.           E  E     H        Q.     S  S   
--------------------------|-------------------|---------------------|------------------------|
--------------------------|-------------------|---------------------|------------------------|
--------------------------|-------------------|--5------------L--L--|------------------------|
--------------------------|--2----------------|--5------------L--L--|--0--------L------------|
--6--5--6--8--6--5--3--1--|--2----------------|--3------------L--L--|--0--------L------------|
--6--5--6--8--6--5--3--1--|--2----------------|---------------------|--0--------L------2--2--|


  PM PM PM PM PM PM PM PM PM PM PM PM PM PM PM PM                                          
  S  S  S  S  S  S  S  S  S  S  S  S  S  S  S  S     W                   W                 
--------------------------------------------------|-------------------|-------------------|
--------------------------------------------------|-------------------|-------------------|
--------------------------------------------------|-------------------|--5----------------|
--------------------------------------------------|--2----------------|--5----------------|
--2--2--------3--3--------0--0--------2--2--------|--2----------------|--3----------------|
--------2--2--------2--2--------2--2--------2--2--|--2----------------|-------------------|


                                           ************
                                           *--Bridge--*
                                           ************


                                                   PM PM             
  W                   Q.     H        E     S  E.  E  E  E  Q    E   
-------------------|---------------------|--------------------------|
-------------------|---------------------|--------------------------|
-------------------|---------------------|---------------3--5----2--|
--0----------------|--0------------------|--3s-5---------3--5----2--|
--0----------------|--0------------------|--3s-5---5--5--1--3----0--|
--0----------------|--0------------------|--3s-5---5--5-------------|


     PM PM PM PM PM PM          PM                   PM PM                         
  E  S  S  S  S  S  S  E  E  E  E     E  Q    Q.     E  E     E  Q    Q    Q.      
-----------------------------------|-----------------------|----------------------|
-----------------------------------|-----------------------|----------------------|
--L--------------------5--3--2-----|-----------------------|---------------7------|
--L--------------------------------|--3--1----1------------|--1--0----0----7------|
--L--------0--0--------3--1--0--5--|--3--1----1------1--1--|--1--0----0----5------|
-----3--3--------3--3-----------x--|--3--1----1------1--1--|--1--0----0-----------|


        PM PM                  PM PM PM PM PM PM          PM                   PM PM  
  E  E  E  E  E  Q    E     E  S  S  S  S  S  S  E  E  E  E     E  Q    Q.     E  E   
-------------------------|-----------------------------------|-----------------------|
-------------------------|-----------------------------------|-----------------------|
--------------3--5----2--|--L--------------------5--3--2-----|-----------------------|
--5--L--------3--5----2--|--L--------------------------------|--3--1----1------------|
--5--L--5--5--1--3----0--|--L--------0--0--------3--1--0--5--|--3--1----1------1--1--|
--5--L--5--5-------------|-----3--3--------3--3-----------x--|--3--1----1------1--1--|


                        **************
                        *--Pre Solo--*
                        **************


                         PM PM   PH PM   W           PM PM   PH PM   W         
  E  Q    Q    Q.        E  E    E  E    H           E  E    E  E    H         
----------------------|----------------<>3--------|----------------<>6--------|
----------------------|---------------------------|---------------------------|
---------------7------|---------------------------|---------------------------|
--1--0----0----7------|--------<>1----------------|--------<>1----------------|
--1--0----0----5------|--1--1-------1-------------|--1--1-------1-------------|
--1--0----0-----------|--1--1-------1-------------|--1--1-------1-------------|


                                              PM PM   PH PM   W         
  E  H.           E     E  H.           E     E  E    E  E    H         
---------------------|---------------------|----------------<>3--------|
---------------------|---------------------|---------------------------|
---------------------|---------------------|---------------------------|
--3--L------------L--|--L--L------------L--|--------<>1----------------|
--3--L------------L--|--L--L------------L--|--1--1-------1-------------|
--3--L------------L--|--L--L------------L--|--1--1-------1-------------|


  PM PM   PH PM   W                                                     
  E  E    E  E    H           E  H.           E     E  H.           E   
----------------<>6--------|---------------------|---------------------|
---------------------------|---------------------|---------------------|
---------------------------|---------------------|---------------------|
--------<>1----------------|--3--L------------L--|--L--L------------L--|
--1--1-------1-------------|--3--L------------L--|--L--L------------L--|
--1--1-------1-------------|--3--L------------L--|--L--L------------L--|


  PM PM   PH PM   W           PM PM   PH PM   W                               
  E  E    E  E    H           E  E    E  E    H           E  H.           E   
----------------<>3--------|----------------<>6--------|---------------------|
---------------------------|---------------------------|---------------------|
---------------------------|---------------------------|---------------------|
--------<>1----------------|--------<>1----------------|--3--L------------L--|
--1--1-------1-------------|--1--1-------1-------------|--3--L------------L--|
--1--1-------1-------------|--1--1-------1-------------|--3--L------------L--|


  E  H.           E     E  H        E  Q         E  H.           E     E  H.           E   
---------------------|-----------------------|----------------------|---------------------|
---------------------|-----------------------|----------------------|---------------------|
---------------------|-----------------------|----------------------|---------------------|
--L--L------------L--|--1--L--------L--LS----|--10--L------------L--|--6--L------------L--|
--L--L------------L--|--1--L--------L--LS----|--10--L------------L--|--6--L------------L--|
--L--L------------L--|--1--L--------L--LS----|--10--L------------L--|--6--L------------L--|


  E  H.           E     E  H.           E     E  H.           E   
---------------------|---------------------|---------------------|
---------------------|---------------------|---------------------|
---------------------|---------------------|---------------------|
--L--L------------L--|--8--L------------L--|--L--L------------L--|
--L--L------------L--|--8--L------------L--|--L--L------------L--|
--L--L------------L--|--8--L------------L--|--L--L------------L--|
                   

**********
*--Solo--*
**********


   H.           E  E     
E||--6------------L--6br--|
B||-----------------------|
G||-----------------------|
D||-----------------------|
A||-----------------------|
D||-----------------------|
                                        PH                                           
                                                          |--3--|                    
  H        S S S S Q        E  S S E    Q     E  E  E     S  S  S E  E  E  H         
--L--------8-6-----------|-----------------------------|----------------------------|
---------------8-6-8~----|--L---------<>8~-------------|----------------------------|
-------------------------|-----8-7-8----------8--7--8--|--7h-8p-7-5--7-----5--------|
-------------------------|-----------------------------|----------------8-----------|
-------------------------|-----------------------------|----------------------------|
-------------------------|-----------------------------|----------------------------|


   PM PM PM PM PM PM PM PM              PH                                      
   S  S  S  S  S  S  S  S  E    S  S    Q       E   T  T   E   E   Q.     E.    
-------------------------------------<>15----|--L~--L---------13--15------L~---|
---------------------------------------------|---------------------------------|
--------------------------10b--10------------|--------13s-15-------------------|
-----------------12-13-12---------13---------|---------------------------------|
-----13-15-13-15-----------------------------|---------------------------------|
--15-----------------------------------------|---------------------------------|


                 |---3---|                                                 
  Q      E   E   S   S   S  E   S  S  E     Q      E   E   S  S  Q     E   
--L~----15--13---------------------------|------------11--15-11-----------|
----------------15h-16p-15-13--15----13--|--L----/13------------13----11--|
----------------------------------15-----|--------------------------------|
-----------------------------------------|--------------------------------|
-----------------------------------------|--------------------------------|
-----------------------------------------|--------------------------------|


                                                                              W         
   S   S  S  S  S  S  S  S  S  S    S  S  S  S  S  S     S  S  Q      S  S    H         
---------15----13----11----10----8g11-10-------------|---------------------------------|
--11h-13----13----13----13----13---------13-11-13----|--------13b----13-11-<>13--------|
--------------------------------------------------12-|--10-12--------------------------|
-----------------------------------------------------|---------------------------------|
-----------------------------------------------------|---------------------------------|
-----------------------------------------------------|---------------------------------|


                                        W          SH                                
   Q    S S S S S S S S S S S S    E    Q    S S   H            Q.     Q.     Q      
--/8----8-6---------------------|-----<>3--------<>8~--------|----------------------|
------------8-6-8-6---6---------|----------------------------|----------------------|
--------------------8---8-7-5-3-|--5---------5-3-------------|----------------------|
--------------------------------|----------------------------|--6------5------3s----|
--------------------------------|----------------------------|----------------------|
--------------------------------|----------------------------|----------------------|


  Q.     Q.     Q       Q    E  E  E  Q     E     E   S S S S S S Q.     E    
---------------------|----------------3--------|--3---L----------------------|
---------------------|--1----4--1--4--6b-------|--6b--L-6-4------------------|
---------------------|----------------------5--|------------7-5-3-5------L\--|
--8------6------8----|-------------------------|-----------------------------|
---------------------|-------------------------|-----------------------------|
---------------------|-------------------------|-----------------------------|


  S S S S S S S S S S S S S S S S    S S S S S S S S H         
----------------------------------|--------------1---1--------|
----------------------------------|----1-3-1-3-4---4----------|
----------------------0---0-1-3-1-|--3------------------------|
------------0-1-0-1-3---3---------|---------------------------|
----1-3-1-3-----------------------|---------------------------|
--4-------------------------------|---------------------------|


  S S S S S S S S S S S S S S S S    S S S S S S S S H         
----------------------------------|------------1-3-1-3--------|
------------------------------1---|--1-3-4-3-4----------------|
--------------------0-1-0-1-3---3-|---------------------------|
------0---0-1-3-1-3---------------|---------------------------|
--1-3---3-------------------------|---------------------------|
----------------------------------|---------------------------|


  S S S S S S S S S S S S S S S S    S S S S S S S S S S S S S S  S S  
----------------------------------|-----------------------------------|
----------------------------------|------1---1-3-4-3-4-6-8-6-8-9-11-9-|
----------------------------0-1-3-|--1-3---3--------------------------|
--------------0---0-1-3-1-3-------|-----------------------------------|
------1---1-3---3-----------------|-----------------------------------|
--3-4---4-------------------------|-----------------------------------|


   |--3--|  |--3--|  |--3--|  |--3--|  |--3--|  |--3--|  |--3--|  |--3--|  
   S  S  S  S  S  S  S  S  S  S  S  S  S  S  S  S  S  S  S  S  S  S  S  S  
-----------------------------------13-15-13----------------13-15-13-15-13-|
--11-10-13-15-16-15-13-11-13-15-16----------16-15-13-15-16----------------|
--------------------------------------------------------------------------|
--------------------------------------------------------------------------|
--------------------------------------------------------------------------|
--------------------------------------------------------------------------|


   |--3--|  |--3--|  |--3--|  |--3--|  |--3--|  |--3--|  |--3--|  |--3--|  
   S  S  S  S  S  S  S  S  S  S  S  S  S  S  S  S  S  S  S  S  S  S  S  S  
--16-15-13----13-15-16-18-16-15-13----13-15-16-18-20-18-16-15-13-15-16-18-|
-----------16----------------------16-------------------------------------|
--------------------------------------------------------------------------|
--------------------------------------------------------------------------|
--------------------------------------------------------------------------|
--------------------------------------------------------------------------|


   H         Q.      E     W                    W                                    
--15--------15------15--|--L~----------------|--L----------------|
------------------------|--------------------|-------------------|
------------------------|--------------------|-------------------| 
------------------------|--------------------|-------------------|
------------------------|--------------------|-------------------| 
------------------------|--------------------|-------------------|



******************
*--REPEAT INTRO--* Starting with the first 15 above
******************


********************
*--REPEAT VERSE 1--*
********************


************************
*--REPEAT VERSE BREAK--*
************************



****************
*--Bridge (2)--*
****************

                       PM PM                  PM PM PM PM PM PM          PM  
  E  Q    Q    Q.         E  E  E  E  E  Q    E     E  S  S  S  S  S  S  E  E  E  E   
----------------------|--------------------------|-----------------------------------|
----------------------|--------------------------|-----------------------------------|
---------------7------|---------------3--5----2--|--L--------------------5--3--2-----|
--1--0----0----7------|--/5--L--------3--5----2--|--L--------------------------------|
--1--0----0----5------|--/5--L--5--5--1--3----0--|--L--------0--0--------3--1--0--5--|
--1--0----0-----------|--/5--L--5--5-------------|-----3--3--------3--3-----------x--|


                 PM PM                                 PM PM             
  E  Q    Q.     E  E     E  Q    Q    Q.        E  E  E  E  E  Q    E   
-----------------------|----------------------|-------------------------|
-----------------------|----------------------|-------------------------|
-----------------------|---------------7------|--------------3--5----2--|
--3--1----1------------|--1--0----0----7------|--5--L--------3--5----2--|
--3--1----1------1--1--|--1--0----0----5------|--5--L--5--5--1--3----0--|
--3--1----1------1--1--|--1--0----0-----------|--5--L--5--5-------------|


     PM PM PM PM PM PM          PM                   PM PM                         
  E  S  S  S  S  S  S  E  E  E  E     E  Q    Q.     E  E     E  Q    Q    Q.      
-----------------------------------|-----------------------|----------------------|
-----------------------------------|-----------------------|----------------------|
--L--------------------5--3--2-----|-----------------------|---------------7------|
--L--------------------------------|--3--1----1------------|--1--0----0----7------|
--L--------0--0--------3--1--0--5--|--3--1----1------1--1--|--1--0----0----5------|
-----3--3--------3--3-----------x--|--3--1----1------1--1--|--1--0----0-----------|


        PM PM                  PM PM PM PM PM PM          PM                   PM PM  
  E  E  E  E  E  Q    E     E  S  S  S  S  S  S  E  E  E  E     E  Q    Q.     E  E   
-------------------------|-----------------------------------|-----------------------|
-------------------------|-----------------------------------|-----------------------|
--------------3--5----2--|--L--------------------5--3--2-----|-----------------------|
--5--L--------3--5----2--|--L--------------------------------|--3--1----1------------|
--5--L--5--5--1--3----0--|--L--------0--0--------3--1--0--5--|--3--1----1------1--1--|
--5--L--5--5-------------|-----3--3--------3--3-----------x--|--3--1----1------1--1--|


                               PM PM                  PM PM PM PM PM PM          PM  
  E  Q    Q    Q.        E  E  E  E  E  Q    E     E  S  S  S  S  S  S  E  E  E  E   
----------------------|-------------------------|-----------------------------------|
----------------------|-------------------------|-----------------------------------|
---------------7------|--------------3--5----2--|--L--------------------5--3--2-----|
--1--0----0----7------|--5--L--------3--5----2--|--L--------------------------------|
--1--0----0----5------|--5--L--5--5--1--3----0--|--L--------0--0--------3--1--0--5--|
--1--0----0-----------|--5--L--5--5-------------|-----3--3--------3--3-----------x--|


                 PM PM                                     
  E  Q    Q.     E  E     E  Q    Q    Q.       
-----------------------|----------------------|
-----------------------|----------------------|
-----------------------|---------------7------|
--3--1----1------------|--1--0----0----7------|
--3--1----1------1--1--|--1--0----0----5------|
--3--1----1------1--1--|--1--0----0-----------|


***********
*--Outro--*
***********

One guitar repeats the Bridge (2) and ends on the G power chord.
This is the other guitar:

  S S S S S S S S S S S S S S S S    S S S S S S S S S S S S S S S S  
--6-5-3-5-6-5-6-5-3-5-6-5-6-5-3-5-|--8-5---5-8-5-8-5---5-8-5-8-5---5-|
----------------------------------|------6-----------6-----------6---|
----------------------------------|----------------------------------|
----------------------------------|----------------------------------|
----------------------------------|----------------------------------|
----------------------------------|----------------------------------|


   S S S S  S S  S S S S  S S  S S S S    S S S S S S S S S S S S S S S S  
--10-6---6-10-6-10-6---6-10-6-10-6---6-|--8-5---5-8-5-8-5---5-8-5-8-5---5-|
-------8-------------8-------------8---|------6-----------6-----------6---|
---------------------------------------|----------------------------------|
---------------------------------------|----------------------------------|
---------------------------------------|----------------------------------|
---------------------------------------|----------------------------------|


  S S S S S S S S S S S S S S S S    S S S S S S S S S S S S S S S S  
--6-5-3-5-6-5-6-5-3-5-6-5-6-5-3-5-|--8-5---5-8-5-8-5---5-8-5-8-5---5-|
----------------------------------|------6-----------6-----------6---|
----------------------------------|----------------------------------|
----------------------------------|----------------------------------|
----------------------------------|----------------------------------|
----------------------------------|----------------------------------|


   S S S S  S S  S S S S  S S  S S S S     S  S S  S S S S S S S S S S S S S  
--10-6---6-10-6-10-6---6-10-6-10-6---6-|--11-10-8-10-8-6-5-3-5-6-5-3-5-3-1---|
-------8-------------8-------------8---|-----------------------------------3-|
---------------------------------------|-------------------------------------|
---------------------------------------|-------------------------------------|
---------------------------------------|-------------------------------------|
---------------------------------------|-------------------------------------|


  S S S S S S S S S S S S S S S S    S S S S S S S S S S S S S S S S  
--6-5-3-5-6-5-6-5-3-5-6-5-6-5-3-5-|--8-5---5-8-5-8-5---5-8-5-8-5---5-|
----------------------------------|------6-----------6-----------6---|
----------------------------------|----------------------------------|
----------------------------------|----------------------------------|
----------------------------------|----------------------------------|
----------------------------------|----------------------------------|


   S S S S  S S  S S S S  S S  S S S S    S S S S S S S S S S S S S S S S  
--10-6---6-10-6-10-6---6-10-6-10-6---6-|--8-5---5-8-5-8-5---5-8-5-8-5---5-|
-------8-------------8-------------8---|------6-----------6-----------6---|
---------------------------------------|----------------------------------|
---------------------------------------|----------------------------------|
---------------------------------------|----------------------------------|
---------------------------------------|----------------------------------|


  S S S S S S S S S S S S S S S S    S S S S S S S S S S S S S S S S  
--6-5-3-5-6-5-6-5-3-5-6-5-6-5-3-5-|--8-5---5-8-5-8-5---5-8-5-8-5---5-|
----------------------------------|------6-----------6-----------6---|
----------------------------------|----------------------------------|
----------------------------------|----------------------------------|
----------------------------------|----------------------------------|
----------------------------------|----------------------------------|


   S S S S  S S  S S S S  S S  S S S S     S  S S  S S S S S S S S S S S S S  
--10-6---6-10-6-10-6---6-10-6-10-6---6-|--11-10-8-10-8-6-5-3-5-6-5-3-5-3-1---|
-------8-------------8-------------8---|-----------------------------------3-|
---------------------------------------|-------------------------------------|
---------------------------------------|-------------------------------------|
---------------------------------------|-------------------------------------|
---------------------------------------|-------------------------------------|


  Q     H.                                             
--3~-----------------|---------------|---------------||
---------------------|---------------|---------------||
---------------------|---------------|---------------||
---------------------|---------------|---------------||
---------------------|---------------|---------------||
---------------------|---------------|---------------||


Duration Legend
---------------
W - whole
H - half
Q - quarter
E - 8th
S - 16th
T - 32nd
X - 64th
. - note dotted
|-n-|  - n-tuplets


Tablature Legend
----------------
L - tied note
x - dead note
g - grace note
(n) - ghost note
> - accentuded note
NH - natural harmonic
AH - artificial harmonic
TH - tapped harmonic
SH - semi harmonic
PH - pitch harmonic
h - hammer on
p - pull off
b - bend
br - bendRelease
pb - preBend
pbr - preBendRelease
brb - bendReleaseBend
\n/ - tremolo bar dip
\n - tremolo bar dive
-/n - tremolo bar Release up
/n\ - tremolo bar inverted dip
/n - tremolo bar return
-\n - tremolo bar Release down
S - shift slide
s - legato slide
/ -  slide into from below or out of upwards
\ -  slide into from above or out of downwards
~ - vibrato
W - wide vibrato
tr - trill
TP - tremolo picking
T - tapping
S - slap
P - pop
< - fade in
^ - brush up
v - brush down


=)
comments
We did not receive enough feedback on this tab! Please rate:
print report bad tab
1 2 3 4 5
I want to post or [tab]
guest
You may want to rate the tab now too:
select rating
Please do not post tabs as comments. Select "correction" instead!