Oops, an error
Loading. Please wait.

Burning The Lives Tab

ver1
ver1

Whole song

Interactive

More versions @911Tabs.com
1,173 views 1 this week
no commentswrite comment
1 2 3 4 5
accurate
x 2
Autoscroll
+/-
esc
set tempo
stop
Difficulty
Tuning
advanced
D G C F A D
Hey! There's an official Ultimate Guitar app which is ideal
for learning songs when you're away from computer. Get the app
WARNING: You are trying to view
                                    content from Ultimate-Guitar.com
                                    in an unauthorized application,
                                    which is prohibited.

                                    Please use an official Ultimate
                                    Guitar Tabs application for iPhone,
                                    iPad or Android to access legitimate
                                    chords, guitar, bass, and drum tabs
                                    from Ultimate-Guitar.com database.

                                    Type "ultimate guitar tabs" in Apple
                                    App Store's or Android Market's
                                    search to find the application.
                              Burning the lives                                 


                                                                    Shadows Fall
2nd Guitar



     W                   E  E  E  E  E  E  E  E     E  E  E  E  E  E  E  E   
D||-------------------|--------------------------|--------------------------|
A||-------------------|--------------------------|--------------------------|
F||-------------------|--------------------------|--------------------------|
C||-------------------|-----------------5--5--4--|--4--2--2--7--7--7--7--7--|
G||-------------------|--2--2--2--5--5--3--3--2--|--2--0--0--5--5--5--5--5--|
D||-------------------|--0--0--0--3--3-----------|--------------------------|


  E  E  E  E  E  E  E  E     E  E  E  E  E  E   E   E   
--------------------------|----------------------------|
--------------------------|----------------------------|
--------------------------|----------------------------|
-----------5--5--4--4--2--|--2--2--2--2--2--2----------|
--2--2--2--3--3--2--2--0--|--0--0--0--0--0--0----------|
--0--0--0-----------------|--------------------12\--0--|


  E  E  E  E  E  E  E  E     E  E  E  E  E  E  E  E   
--------------------------|--------------------------|
--------------------------|--------------------------|
--------------------------|--------------------------|
-----------------5--5--4--|--4--2--2--7--7--7--7--7--|
--2--2--2--5--5--3--3--2--|--2--0--0--5--5--5--5--5--|
--0--0--0--3--3-----------|--------------------------|


  E  E  E  E  E  E  E  E     E  E  E  E  E  E  E  E   
--------------------------|--------------------------|
--------------------------|--------------------------|
--------------------------|--------------------------|
-----------5--5--4--4--2--|--2--2--2--4--4--4--4--4--|
--2--2--2--3--3--2--2--0--|--0--0--0--2--2--2--2--2--|
--0--0--0-----------------|--------------------------|


  E  E  E  E  E  E  E  E     E  E  E  E  E  E  E  E   
--------------------------|--------------------------|
--------------------------|--------------------------|
--------------------------|--------------------------|
--5--5--5--5--5--5--5--5--|--4--4--4--4--4--4--4--4--|
--3--3--3--3--3--3--3--3--|--2--2--2--2--2--2--2--2--|
--------------------------|--------------------------|


  S S S S S S S S S S S S S S S S    S S S S Q    S S S S Q     
----------------------------------|----------------------------|
----------------------------------|----------------------------|
----------------------------------|----------------------------|
----------------------------------|----------5------------4----|
--5-2-----------------------------|----------3------------2----|
--3-0-0-0-0-0-0-0-5-5-0-0-3-0-0-3-|--0-3-0-3------5-3-2-0------|


  E  E  H.              W                   S S S S S S S S S S S S S S S S  
---------------------|-------------------|----------------------------------|
---------------------|-------------------|----------------------------------|
---------------------|-------------------|----------------------------------|
---------------------|-------------------|----------------------------------|
--2------------------|-------------------|--5-2-----------------------------|
--0------------------|-------------------|--3-0-0-0-0-0-0-0-5-5-0-0-3-0-0-3-|


  S S S S Q    S S S S Q       S S S S S S S S S S S S S S S S  
----------------------------|----------------------------------|
----------------------------|----------------------------------|
----------------------------|----------------------------------|
----------5------------4----|----------------------------------|
----------3------------2----|--5-2-----------------------------|
--0-3-0-3------5-3-2-0------|--3-0-0-0-0-0-0-0-5-5-0-0-3-0-0-3-|


  S S S S Q    S S S S Q       S S S S S S S S S S S S S S S S  
----------------------------|----------------------------------|
----------------------------|----------------------------------|
----------------------------|----------------------------------|
----------5------------4----|----------------------------------|
----------3------------2----|--5-2-----------------------------|
--0-3-0-3------5-3-2-0------|--3-0-0-0-0-0-0-0-5-5-0-0-3-0-0-3-|


  S S S S Q    S S S S Q       S S S S S S S S S S S S S S S S  
----------------------------|----------------------------------|
----------------------------|----------------------------------|
----------------------------|----------------------------------|
----------5------------4----|----------------------------------|
----------3------------2----|--5-2-----------------------------|
--0-3-0-3------5-3-2-0------|--3-0-0-0-0-0-0-0-5-5-0-0-3-0-0-3-|


  S S S S Q    S S S S Q       S S S S S S S S S S S S S S S S  
----------------------------|----------------------------------|
----------------------------|--5-5-----------------8-8-8-8-7-7-|
----------------------------|------5-5-5-5-5-5-5-5-------------|
----------5------------4----|----------------------------------|
----------3------------2----|----------------------------------|
--0-3-0-3------5-3-2-0------|----------------------------------|


  S S S S S S S S S S S S S S S S    S S S S S S S S S S S S S S S S  
----------------------------------|----------------------------------|
--7-7-8-8-7-7-5-5-----------------|--5-5-----------------8-8-8-8-7-7-|
------------------7-7-7-7-7-7-7-7-|------5-5-5-5-5-5-5-5-------------|
----------------------------------|----------------------------------|
----------------------------------|----------------------------------|
----------------------------------|----------------------------------|


  S S S S S S S S S S S S S S S S    S S S S S S S S S S S S S S S S  
----------------------------------|----------------------------------|
--7-7-8-8-7-7-5-5-----------------|----------------------------------|
------------------7-7-7-7-7-7-7-7-|----------------------------------|
----------------------------------|----------------------------------|
----------------------------------|--5-2-----------------------------|
----------------------------------|--3-0-0-0-0-0-0-0-5-5-0-0-3-0-0-3-|


  S S S S Q    S S S S Q       S S S S S S S S S S S S S S S S  
----------------------------|----------------------------------|
----------------------------|----------------------------------|
----------------------------|----------------------------------|
----------5------------4----|----------------------------------|
----------3------------2----|--5-2-----------------------------|
--0-3-0-3------5-3-2-0------|--3-0-0-0-0-0-0-0-5-5-0-0-3-0-0-3-|


  S S S S Q    S S S S Q       E  E  E  E  E  E  E  E   
----------------------------|--------------------------|
----------------------------|--------------------------|
----------------------------|--------------------------|
----------5------------4----|-----------------7-----5--|
----------3------------2----|--5--2--2--2--2-----------|
--0-3-0-3------5-3-2-0------|--3--0--0--0--0-----0-----|


  E  E  E  E  E  E  E  E     E  E  E  E  E  E  E  E   
--------------------------|--------------------------|
--------------------------|--------------------------|
--------------------------|--------------------------|
-----4-----5--------------|-----------------7-----5--|
-----------------3--5--3--|--5--2--2--2--2-----------|
--0-----0-----0--1--3--1--|--3--0--0--0--0-----0-----|


  E  E  E  E  E   E   E   E     E  E  E  Q    E  E  E   
-----------------------------|-----------0----------0--|
-----------------------------|--8----------------------|
-----------------------------|--------9----------9-----|
-----4-----5------4h--5p--4--|-----9----------9--------|
-----------------------------|-------------------------|
--0-----0-----0--------------|-------------------------|


  Q.      Q     E   Q        E   E   E   E   E   E   Q     
-------------------------|--------------------------------|
---------12--------------|--------------10----------------|
---------------12--------|----------11------11------11----|
-------------------12----|------12--------------12--------|
-------------------------|--------------------------------|
--8----------------------|--10----------------------------|


  Q    Q     Q     Q       E  E  E  Q    E  E  E   
------------------------|-----------0-------------|
-------8----------------|-------------------8-----|
------------11----------|--------9-------------9--|
------------------12----|-----9----------9--------|
------------------------|--7----------------------|
--8---------------------|--0----------------------|


  E   E   E   Q     E   Q        E   E   E   Q     E   Q     
-----------------------------|------------------------------|
-------------12--------------|--------------10--------------|
---------12--------12--------|----------11--------11--------|
-----12----------------12----|------12----------------12----|
-----------------------------|------------------------------|
--8--------------------------|--10--------------------------|


   E   E  E  E  E  E  Q       E  E  E  E  E  E  E  E   
---------------------------|--------------------------|
---------------------------|--------------------------|
---------------------------|--------------------------|
-------------------7--7----|-----------------5--5--4--|
--10--10-----9-----5--5----|--2--2--2--5--5--3--3--2--|
---8---8-----7-------------|--0--0--0--3--3-----------|


  E  E  E  E  E  E  E  E     E  E  E  E  E  E  E  E   
--------------------------|--------------------------|
--------------------------|--------------------------|
--------------------------|--------------------------|
--4--2--2--7--7--7--7--7--|-----------5--5--4--4--2--|
--2--0--0--5--5--5--5--5--|--2--2--2--3--3--2--2--0--|
--------------------------|--0--0--0-----------------|


  E  E  E  E  E  E   E   E     E  E  E  E  E  E  E  E   
----------------------------|--------------------------|
----------------------------|--------------------------|
----------------------------|--------------------------|
--2--2--2--2--2--2----------|-----------------5--5--4--|
--0--0--0--0--0--0----------|--2--2--2--5--5--3--3--2--|
--------------------12\--0--|--0--0--0--3--3-----------|


  E  E  E  E  E  E  E  E     E  E  E  E  E  E  E  E   
--------------------------|--------------------------|
--------------------------|--------------------------|
--------------------------|--------------------------|
--4--2--2--7--7--7--7--7--|-----------5--5--4--4--2--|
--2--0--0--5--5--5--5--5--|--2--2--2--3--3--2--2--0--|
--------------------------|--0--0--0-----------------|


  E  E  E  E  E  E  E  E     E  E  E  E  E  E  E  E   
--------------------------|--------------------------|
--------------------------|--------------------------|
--------------------------|--------------------------|
--2--2--2--4--4--4--4--4--|--5--5--5--5--5--5--5--5--|
--0--0--0--2--2--2--2--2--|--3--3--3--3--3--3--3--3--|
--------------------------|--------------------------|


  E  E  E  E  E  E  E  E     S S S S S S S S S S S S S S S S  
--------------------------|----------------------------------|
--------------------------|----------------------------------|
--------------------------|----------------------------------|
--4--4--4--4--4--4--4--4--|----------------------------------|
--2--2--2--2--2--2--2--2--|--5-2-----------------------------|
--------------------------|--3-0-0-0-0-0-0-0-5-5-0-0-3-0-0-3-|


  S S S S Q    S S S S Q       S S S S S S S S S S S S S S S S  
----------------------------|----------------------------------|
----------------------------|----------------------------------|
----------------------------|----------------------------------|
----------5------------4----|----------------------------------|
----------3------------2----|--5-2-----------------------------|
--0-3-0-3------5-3-2-0------|--3-0-0-0-0-0-0-0-5-5-0-0-3-0-0-3-|


  S S S S Q    S S S S Q       S S S S S S S S S S S S S S S S  
----------------------------|----------------------------------|
----------------------------|----------------------------------|
----------------------------|----------------------------------|
----------5------------4----|----------------------------------|
----------3------------2----|--5-2-----------------------------|
--0-3-0-3------5-3-2-0------|--3-0-0-0-0-0-0-0-5-5-0-0-3-0-0-3-|


  S S S S Q    S S S S Q       S S S S S S S S S S S S S S S S  
----------------------------|----------------------------------|
----------------------------|----------------------------------|
----------------------------|----------------------------------|
----------5------------4----|----------------------------------|
----------3------------2----|--5-2-----------------------------|
--0-3-0-3------5-3-2-0------|--3-0-0-0-0-0-0-0-5-5-0-0-3-0-0-3-|


  S S S S Q    S S S S Q       S S S S S S S S S S S S S S S S  
----------------------------|----------------------------------|
----------------------------|--5-5-----------------8-8-8-8-7-7-|
----------------------------|------5-5-5-5-5-5-5-5-------------|
----------5------------4----|----------------------------------|
----------3------------2----|----------------------------------|
--0-3-0-3------5-3-2-0------|----------------------------------|


  S S S S S S S S S S S S S S S S    S S S S S S S S S S S S S S S S  
----------------------------------|----------------------------------|
--7-7-8-8-7-7-5-5-----------------|--5-5-----------------8-8-8-8-7-7-|
------------------7-7-7-7-7-7-7-7-|------5-5-5-5-5-5-5-5-------------|
----------------------------------|----------------------------------|
----------------------------------|----------------------------------|
----------------------------------|----------------------------------|


  S S S S S S S S S S S S S S S S    S S S S S S S S S S S S S S S S  
----------------------------------|----------------------------------|
--7-7-8-8-7-7-5-5-----------------|----------------------------------|
------------------7-7-7-7-7-7-7-7-|----------------------------------|
----------------------------------|----------------------------------|
----------------------------------|--5-2-----------------------------|
----------------------------------|--3-0-0-0-0-0-0-0-5-5-0-0-3-0-0-3-|


  S S S S Q    S S S S Q       S S S S S S S S S S S S S S S S  
----------------------------|----------------------------------|
----------------------------|----------------------------------|
----------------------------|----------------------------------|
----------5------------4----|----------------------------------|
----------3------------2----|--5-2-----------------------------|
--0-3-0-3------5-3-2-0------|--3-0-0-0-0-0-0-0-5-5-0-0-3-0-0-3-|


  S S S S Q    S S S S Q       E  E  E  E  E  E  E  E   
----------------------------|--------------------------|
----------------------------|--------------------------|
----------------------------|--------------------------|
----------5------------4----|-----------------7-----5--|
----------3------------2----|--5--2--2--2--2-----------|
--0-3-0-3------5-3-2-0------|--3--0--0--0--0-----0-----|


  E  E  E  E  E  E  E  E     E  E  E  E  E  E  E  E   
--------------------------|--------------------------|
--------------------------|--------------------------|
--------------------------|--------------------------|
-----4-----5--------------|-----------------7-----5--|
-----------------3--5--3--|--5--2--2--2--2-----------|
--0-----0-----0--1--3--1--|--3--0--0--0--0-----0-----|


  E  E  E  E  E   E   E   E     E  E  E  Q    E  E  E   
-----------------------------|-----------0----------0--|
-----------------------------|--8----------------------|
-----------------------------|--------9----------9-----|
-----4-----5------4h--5p--4--|-----9----------9--------|
-----------------------------|-------------------------|
--0-----0-----0--------------|-------------------------|


  Q.      Q     E   Q        E   E   E   E   E   E   Q     
-------------------------|--------------------------------|
---------12--------------|--------------10----------------|
---------------12--------|----------11------11------11----|
-------------------12----|------12--------------12--------|
-------------------------|--------------------------------|
--8----------------------|--10----------------------------|


  Q    Q     Q     Q       E  E  E  Q    E  E  E   
------------------------|-----------0-------------|
-------8----------------|-------------------8-----|
------------11----------|--------9-------------9--|
------------------12----|-----9----------9--------|
------------------------|--7----------------------|
--8---------------------|--0----------------------|


  E   E   E   Q     E   Q        E   E   E   Q     E   Q     
-----------------------------|------------------------------|
-------------12--------------|--------------10--------------|
---------12--------12--------|----------11--------11--------|
-----12----------------12----|------12----------------12----|
-----------------------------|------------------------------|
--8--------------------------|--10--------------------------|


  Q    Q     Q     Q       E  E  E  Q    E  E  E     Q.      Q     E   Q     
------------------------|-----------0----------0--|-------------------------|
-------8----------------|--8----------------------|---------12--------------|
------------11----------|--------9----------9-----|---------------12--------|
------------------12----|-----9----------9--------|-------------------12----|
------------------------|-------------------------|-------------------------|
--8---------------------|-------------------------|--8----------------------|


   E   E   E   E   E   E   Q       Q    Q     Q     Q     
--------------------------------|------------------------|
--------------10----------------|-------8----------------|
----------11------11------11----|------------11----------|
------12--------------12--------|------------------12----|
--------------------------------|------------------------|
--10----------------------------|--8---------------------|


  E  E  E  Q    E  E  E     E   E   E   Q     E   Q     
-----------0-------------|-----------------------------|
-------------------8-----|-------------12--------------|
--------9-------------9--|---------12--------12--------|
-----9----------9--------|-----12----------------12----|
--7----------------------|-----------------------------|
--0----------------------|--8--------------------------|


   E   E   E   Q     E   Q       Q    Q     Q     Q           
------------------------------|------------------------|-----|
--------------10--------------|-------8----------------|-----|
----------11--------11--------|------------11----------|-----|
------12----------------12----|------------------12----|-----|
------------------------------|------------------------|-----|
--10--------------------------|--8---------------------|-----|


  E  E  E  E    Q       E  E     E  E    Q       E  E  E  E   
------------------------------|------------------------------|
------------------------------|------------------------------|
------------------------------|------------------------------|
------------------------------|------------------------------|
--------------<>3brb----------|--------<>3brb----3--2--------|
--0--2--3--2------------0--2--|--3--2------------------3--2--|


  E  E  E  E    Q       E  E     E  E    Q       E  E  E  E   
------------------------------|------------------------------|
------------------------------|------------------------------|
------------------------------|------------------------------|
------------------------------|------------------------------|
--------------<>3brb----------|--------<>3brb----3--2--------|
--0--2--3--2------------0--2--|--3--2------------------3--2--|


  E  E  E  E    Q       E  E     E  E    Q       E  E  E  E   
------------------------------|------------------------------|
------------------------------|------------------------------|
------------------------------|------------------------------|
------------------------------|------------------------------|
--------------<>3brb----------|--------<>3brb----3--2--------|
--0--2--3--2------------0--2--|--3--2------------------3--2--|


  E  E  E  E    Q       E  E     E  E    Q       E  E  E  E   
------------------------------|------------------------------|
------------------------------|------------------------------|
------------------------------|------------------------------|
------------------------------|------------------------------|
--------------<>3brb----------|--------<>3brb----3--2--------|
--0--2--3--2------------0--2--|--3--2------------------3--2--|


  W                   W                   W                 
-------------------|-------------------|-------------------|
-------------------|-------------------|-------------------|
-------------------|-------------------|-------------------|
--5----------------|--4----------------|--7----------------|
--3----------------|--2----------------|--5----------------|
-------------------|-------------------|-------------------|


  H        H           W                   W                 
--------------------|-------------------|-------------------|
--------------------|-------------------|-------------------|
-----------5--------|-------------------|-------------------|
--6--------3--------|--5----------------|--4----------------|
--4-----------------|--3----------------|--2----------------|
--------------------|-------------------|-------------------|


  W                   H        H           E  H.           E   
-------------------|--------------------|---------------------|
-------------------|--------------------|---------------------|
-------------------|-----------5--------|---------------------|
--7----------------|--6--------3--------|---------------------|
--5----------------|--4-----------------|--2------------------|
-------------------|--------------------|--0------------------|


  E  E  E  E  E  E  E  E     E  H.           E   
--------------------------|---------------------|
--------------------------|---------------------|
--------------------------|---------------------|
--------------------------|---------------------|
--2--2-----2-----2--2-----|--2------------------|
--0--0-----0-----0--0-----|--0------------------|


                                          PM PM PM PM PM     
  S S S S S S S S E  S S S S S S    E  E  E  E  E  E  E  E   
---------------------------------|--------------------------|
---------------------------------|--------------------------|
---------------------------------|--------------------------|
---------------------------------|--------------------------|
--2-2-2-2-2-2-2-2-2--2-2-2-2-2-2-|--5--2--------------------|
--0-0-0-0-0-0-0-0-0--0-0-0-0-0-0-|--3--0--0--0--0--3--0--0--|


  PM PM    PM PM PM                 PM PM PM PM PM     
  E  E  E  E  E  E  E   E     E  E  E  E  E  E  E  E   
---------------------------|--------------------------|
---------------------------|--------------------------|
---------------------------|--------------------------|
--------5-----------4S--2--|--------------------------|
--------3-----------2S--0--|--5--2--------------------|
--2--0-----0--3--0---------|--3--0--0--0--0--3--0--0--|


  PM PM    PM PM PM                 PM PM PM PM PM     
  E  E  E  E  E  E  E   E     E  E  E  E  E  E  E  E   
---------------------------|--------------------------|
---------------------------|--------------------------|
---------------------------|--------------------------|
--------5-----------4S--2--|--------------------------|
--------3-----------2S--0--|--5--2--------------------|
--2--0-----0--3--0---------|--3--0--0--0--0--3--0--0--|


  PM PM    PM PM PM                 PM PM PM PM PM     
  E  E  E  E  E  E  E   E     E  E  E  E  E  E  E  E   
---------------------------|--------------------------|
---------------------------|--------------------------|
---------------------------|--------------------------|
--------5-----------4S--2--|--------------------------|
--------3-----------2S--0--|--5--2--------------------|
--2--0-----0--3--0---------|--3--0--0--0--0--3--0--0--|


  PM PM    PM PM PM                                    
  E  E  E  E  E  E  E   E     E  E  E  E  E  E  E  E   
---------------------------|--------------------------|
---------------------------|--------------------------|
---------------------------|--------------------------|
--------5-----------4S--2--|--------------------------|
--------3-----------2S--0--|--0--3--2--0--------0--3--|
--2--0-----0--3--0---------|--------------3--0--------|


  E  E  E  E  E  E  E  E     E  E  E  E  E  E  E  E   
--------------------------|--------------------------|
--------------------------|--------------------------|
--------------------------|--------------------------|
--------------------------|--------------------------|
--2--0--------0--5--3--2--|--0--3--2--0--------0--3--|
--------3--0--------------|--------------3--0--------|


                                           ^            
  E  E  E  E  E  E  E  E     E  E  E  E    H            
--------------------------|----------------------------|
--------------------------|----------------------------|
--------------------------|----------------------------|
--------------------------|----------------------------|
--2--0--------0--5--3--2--|--------------<>3brb--------|
--------3--0--------------|--0--2--3--2----------------|


  E  E  E  E    Q       E  E     E  E    Q       E  E  E  E   
------------------------------|------------------------------|
------------------------------|------------------------------|
------------------------------|------------------------------|
------------------------------|------------------------------|
--------------<>3brb----------|--------<>3brb----3--2--------|
--0--2--3--2------------0--2--|--3--2------------------3--2--|


  E  E  E  E    Q       E  E     E  E    Q       E  E  E  E   
------------------------------|------------------------------|
------------------------------|------------------------------|
------------------------------|------------------------------|
------------------------------|------------------------------|
--------------<>3brb----------|--------<>3brb----3--2--------|
--0--2--3--2------------0--2--|--3--2------------------3--2--|


  E  E  E  E  E  E  E  E     E  E  E  E  E  E  E  E   
--------------------------|--------------------------|
--------------------------|--------------------------|
--------------------------|--------------------------|
--------5-----4--------5--|-----4--------------------|
--------3-----2--------3--|-----2-----0--------3--2--|
--0--0-----0-----0--0-----|--0-----0-----3--2--------|


  E  E  E  E  E  E  E  E     E  E  E  E  E  E  E  E     E  E  E  Q    E  E  E   
--------------------------|--------------------------|-----------0----------0--|
--------------------------|--------------------------|--8----------------------|
--------------------------|--------------------------|--------9----------9-----|
--------5-----4--------5--|-----4--------------------|-----9----------9--------|
--------3-----2--------3--|-----2-----0--------3--2--|-------------------------|
--0--0-----0-----0--0-----|--0-----0-----3--2--------|-------------------------|


  Q.      Q     E   Q        E   E   E   E   E   E   Q     
-------------------------|--------------------------------|
---------12--------------|--------------10----------------|
---------------12--------|----------11------11------11----|
-------------------12----|------12--------------12--------|
-------------------------|--------------------------------|
--8----------------------|--10----------------------------|


  Q    Q     Q     Q       E  E  E  Q    E  E  E   
------------------------|-----------0-------------|
-------8----------------|-------------------8-----|
------------11----------|--------9-------------9--|
------------------12----|-----9----------9--------|
------------------------|--7----------------------|
--8---------------------|--0----------------------|


  E   E   E   Q     E   Q        E   E   E   Q     E   Q     
-----------------------------|------------------------------|
-------------12--------------|--------------10--------------|
---------12--------12--------|----------11--------11--------|
-----12----------------12----|------12----------------12----|
-----------------------------|------------------------------|
--8--------------------------|--10--------------------------|


  Q    Q     Q     Q       Q.     Q    Q    E     W                 
------------------------|----------------------|-------------------|
-------8----------------|----------------------|-------------------|
------------11----------|----------------------|-------------------|
------------------12----|--------------5----4--|--L----------------|
------------------------|--2------5----3----2--|--L----------------|
--8---------------------|--0------3------------|-------------------|


  Q.     Q    Q    E     E  Q    Q    E  E  E     E  E  E  Q    E  E  E   
----------------------|------------------------|-----------0----------0--|
----------------------|------------------------|--8----------------------|
----------------------|------------------------|--------9----------9-----|
--------------5----4--|--L--2----7----7--7--7--|-----9----------9--------|
--2------5----3----2--|-----0----5----5--5--5--|-------------------------|
--0------3------------|------------------------|-------------------------|


  Q.      Q     E   Q        E   E   E   E   E   E   Q     
-------------------------|--------------------------------|
---------12--------------|--------------10----------------|
---------------12--------|----------11------11------11----|
-------------------12----|------12--------------12--------|
-------------------------|--------------------------------|
--8----------------------|--10----------------------------|


  Q    Q     Q     Q       E  E  E  Q    E  E  E   
------------------------|-----------0-------------|
-------8----------------|-------------------8-----|
------------11----------|--------9-------------9--|
------------------12----|-----9----------9--------|
------------------------|--7----------------------|
--8---------------------|--0----------------------|


  E   E   E   Q     E   Q        E   E   E   Q     E   Q     
-----------------------------|------------------------------|
-------------12--------------|--------------10--------------|
---------12--------12--------|----------11--------11--------|
-----12----------------12----|------12----------------12----|
-----------------------------|------------------------------|
--8--------------------------|--10--------------------------|


  Q    Q     Q     Q       E  E  E  Q    E  E  E     Q.      Q     E   Q     
------------------------|-----------0----------0--|-------------------------|
-------8----------------|--8----------------------|---------12--------------|
------------11----------|--------9----------9-----|---------------12--------|
------------------12----|-----9----------9--------|-------------------12----|
------------------------|-------------------------|-------------------------|
--8---------------------|-------------------------|--8----------------------|


   E   E   E   E   E   E   Q       Q    Q     Q     Q     
--------------------------------|------------------------|
--------------10----------------|-------8----------------|
----------11------11------11----|------------11----------|
------12--------------12--------|------------------12----|
--------------------------------|------------------------|
--10----------------------------|--8---------------------|


  E  E  E  Q    E  E  E     E   E   E   Q     E   Q     
-----------0-------------|-----------------------------|
-------------------8-----|-------------12--------------|
--------9-------------9--|---------12--------12--------|
-----9----------9--------|-----12----------------12----|
--7----------------------|-----------------------------|
--0----------------------|--8--------------------------|


   E   E   E   Q     E   Q        E   E  E  E  E  E  Q     
------------------------------|---------------------------|
--------------10--------------|---------------------------|
----------11--------11--------|---------------------------|
------12----------------12----|-------------------7--7----|
------------------------------|--10--10-----9-----5--5----|
--10--------------------------|---8---8-----7-------------|


  E  E  E  E  E  E  E  E     E  E  E  E  E  E  E  E   
--------------------------|--------------------------|
--------------------------|--------------------------|
--------------------------|--------------------------|
-----------------5--5--4--|--4--2--2--7--7--7--7--7--|
--2--2--2--5--5--3--3--2--|--2--0--0--5--5--5--5--5--|
--0--0--0--3--3-----------|--------------------------|


  E  E  E  E  E  E  E  E     E  E  E  E  E  E  E  E   
--------------------------|--------------------------|
--------------------------|--------------------------|
--------------------------|--------------------------|
-----------5--5--4--4--2--|--2--2--2--4--4--4--4--4--|
--2--2--2--3--3--2--2--0--|--0--0--0--2--2--2--2--2--|
--0--0--0-----------------|--------------------------|


  E  E  E  E  E  E  E  E     E  E  E  E  E  E  E  E   
--------------------------|--------------------------|
--------------------------|--------------------------|
--------------------------|--------------------------|
--5--5--5--5--5--5--5--5--|--4--4--4--4--4--4--4--4--|
--3--3--3--3--3--3--3--3--|--2--2--2--2--2--2--2--2--|
--------------------------|--------------------------|


  E  E  E  E  E  E  E  E     E  E  E  E  E  E  E  E     E  E  H.             
--------------------------|--------------------------|---------------------||
--------------------------|--------------------------|---------------------||
--------------------------|--------------------------|---------------------||
--5--5--5--5--5--5--5--5--|--4--4--4--4--4--4--4--4--|---------------------||
--3--3--3--3--3--3--3--3--|--2--2--2--2--2--2--2--2--|--2--2---------------||
--------------------------|--------------------------|--0--0---------------||




Duration Legend
---------------
W - whole
H - half
Q - quarter
E - 8th
S - 16th
T - 32nd
X - 64th
. - note dotted
|-n-|  - n-tuplets


Tablature Legend
----------------
L - tied note
x - dead note
g - grace note
(n) - ghost note
> - accentuded note
NH - natural harmonic
AH - artificial harmonic
TH - tapped harmonic
SH - semi harmonic
PH - pitch harmonic
h - hammer on
p - pull off
b - bend
br - bendRelease
pb - preBend
pbr - preBendRelease
brb - bendReleaseBend
\n/ - tremolo bar dip
\n - tremolo bar dive
-/n - tremolo bar Release up
/n\ - tremolo bar inverted dip
/n - tremolo bar return
-\n - tremolo bar Release down
S - shift slide
s - legato slide
/ -  slide into from below or out of upwards
\ -  slide into from above or out of downwards
~ - vibrato
W - wide vibrato
tr - trill
TP - tremolo picking
T - tapping
S - slap
P - pop
< - fade in
^ - brush up
v - brush down



Any question?  here is my msn: the_light_that_blinds_me@hotmail.com
comments
We did not receive enough feedback on this tab! Please rate:
print report bad tab
1 2 3 4 5
I want to post or [tab]
guest
You may want to rate the tab now too:
select rating
Please do not post tabs as comments. Select "correction" instead!