Oops, an error
Loading. Please wait.

Crushing Belial Bass Tab

158 views 1 this week
no commentswrite comment
1 2 3 4 5
please rate
Autoscroll
+/-
esc
set tempo
stop
Contributor
WARNING: You are trying to view
                                    content from Ultimate-Guitar.com
                                    in an unauthorized application,
                                    which is prohibited.

                                    Please use an official Ultimate
                                    Guitar Tabs application for iPhone,
                                    iPad or Android to access legitimate
                                    chords, guitar, bass, and drum tabs
                                    from Ultimate-Guitar.com database.

                                    Type "ultimate guitar tabs" in Apple
                                    App Store's or Android Market's
                                    search to find the application.
Band - Shadows Fall
Song - Crushing Belial

Key:
..  - palm mute           
 /  - slide up to	   
 \  - slide down to        
 ~  - vibrato		   
 h  - hammer on            
 b  - bend		   
 p  - pull off            
 t  - tap
 ph - pinch harmonic
 f - full bend     
 h - half bend     
 r - release       
 ~ - vibrato bend  

Intro:
F|---------------------------------------------------------------------|
C|---------------------------------------------------------------------|
G|--0------------------------------------------------------------------|
D|----0------------8--8--7-------0-------------------------------------|

|----------------------------------------------------------------------|
|----------------------------------------------------------------------|
|--0---------------------------0---------------------------------------|
|----0------------8---8--7-------0-------------------------------------| 

Preverse:
|----------------------------------------------------------------------|
|---------------------9--7----------------------9"-7"-10"--------------|
|-5/7-------------10--------9--9h10-----------------------10"----------|
|-----0-0-0-0-0-0-------------------0-0-0-0-0-0------------------------|\
                                                                         | x2
|----------------------------------------------------------------------|/
|---------------------9--7---------------------------10p9------9p7-----|
|-5/7-------------10--------9--9h10-----------------------10-------9---|
|-----0-0-0-0-0-0------------------0-0-0-0-0-0-0-0-0-------------------|

Fill 1:
|----------------------------------------------------------------------|
|-----10--7-----9--5------7--4------5-2--------------------------------|
|----------------------------------------------------------------------|
|-0-0-------0-0-------0-0------0-0-------------------------------------|

Fill 2:
|----------------------------------------------------------------------|
|----------------------------------------------------------------------|
|----------------------------------------------------------------------|
|-0-0-0--0-0-0--0--0-0-0--0--0-0-0--0-0-0--8/-10-----------------------|

|----------------------------------------------------------------------|
|---------------------------------9--7---------------------------------|
|-----------------------------10---------9-10--------------------------|
|--0-0-0--0-0-0--0--0-0-0--0-------------------------------------------|

Verse:
|----------------------------------------------------------------------|
|----------------------------------------------------------------------|
|----------------------------------------------------------------------|
|-0-0-0--0-0-0--0--0-0-0--0--0-0-0--0-0-0--8/-10-----------------------|\
                                                                         | x4
|----------------------------------------------------------------------|/
|---------------------------------9--7---------------------------------|
|-----------------------------10---------9/10--------------------------|
|--0-0-0--0-0-0--0--0-0-0--0-------------------------------------------|

Bridge:
|----------------------------------------------------------------------|
|----------------------------------------------------------------------|
|-------10h12------9h10------10-x--7--x--9-x---------------------------| x4
|---0-0-------0-0--------0-0-------------------------------------------|

Fill 3:
|--------------------------------------------|
|-----10p9-------9p7-------10p9-------9p7----|
|----------10--------9----------10--------9--|
|--0----------0---------0----------0---------|

Verse:
|----------------------------------------------------------------------|
|----------------------------------------------------------------------|
|----------------------------------------------------------------------|
|-0-0-0--0-0-0--0--0-0-0--0--0-0-0--0-0-0--8/-10-----------------------|\
                                                                         | x4
|----------------------------------------------------------------------|/
|---------------------------------9--7---------------------------------|
|-----------------------------10---------9/10--------------------------|
|--0-0-0--0-0-0--0--0-0-0--0-------------------------------------------|

Bridge:
|----------------------------------------------------------------------|
|----------------------------------------------------------------------|
|-------10h12------9h10------10-x--7--x--9-x---------------------------| x4
|---0-0-------0-0--------0-0-------------------------------------------|

Fill 4:
|--------------|
|--------------|
|--------------|
|--0--0--0--0--|

Prechorus:
|----------------------|-----------------------------------------------|
|----------------------|-----------------------------------------------|
|-------------5--5--3--|-----------------5-----------------------------|
|--0--3--3-5-----------|--5--5-5-5-5-5-5----8--7--8---7-5--------------|\
                                                                         | x2
|-----------------------|----------------------------------------------|/
|-----------------------|----------------------------------------------|
|--------------5--5--3--|-----------------5----------------------------|
|--0--3--3/-5-----------|--5--5-5-5-5-5-5----8--7--8---7-5-------------|

Chorus: 
|----------------------------------------------------------------------|
|----------------------------------------------------------------------|
|----------------------------------------------------------------------|
|-0-0-0--0-0-0--0--0-0-0--0--0-0-0--0-0-0--8/-10-----------------------|\
                                                                         | x4
|----------------------------------------------------------------------|/
|---------------------------------9--7---------------------------------|
|-----------------------------10---------9/10--------------------------|
|--0-0-0--0-0-0--0--0-0-0--0-------------------------------------------|

Acoustic Part:
|---------------------------|---------------------------|
|---------------------------|---------------------------|
|---------------------------|---------------------------| x2
|---0-----------------------|--3------------------------|

|---------------------------|---------------------------|
|---------------------------|---------------------------|
|---------------------------|---------------------------| x4
|---0-----------------------|--0------------------------|

|---------------------------|--------------------------*|
|*--------------------------|--------------------------*|
|*--------------------------|---------------------------| x4
|---0-----------------------|---------------------------|

Solo:
Interlude:
|---------------------------|-------------------------|
|---------------------------|-------------------------|
|---------------------------|-------------3-----5-----| x4
|---0-----------------------|--0----------------------|

Break:
|---------------------------|-------------------------|
|---------------------------|-------------------------|
|---------------------------|-------------3-----5-----|
|--0------------------------|--0----------------------|

Interlude:
|---------------------------|-------------------------|
|---------------------------|-------------------------|
|---------------------------|-------------3-----5-----| x4
|---0-----------------------|--0----------------------|

Break:
|------------------------------|---------------------------------|
|------------------------------|---------------------------------|
|------------------------------|---------------------------------|
|--0---------------------------|--6-------8-------6-------8------|

Part:
|----------------------------------|
|----------------------------------|
|---------3--------------2---------| x7
|---0-0-0----4-3-4-0-0-0----4-3-4--|
                                                    
Break:
|-------------------------------|
|-------------------------------|
|--------3--------3-3--5--------|
|--0-0-0----4-3-4---------------|

Prechorus:
|----------------------|-----------------------------------------------|
|----------------------|-----------------------------------------------|
|-------------5--5--3--|-----------------5-----------------------------|
|--0--3--3-5-----------|--5--5-5-5-5-5-5----8--7--8---7-5--------------|\
                                                                         | x4
|-----------------------|----------------------------------------------|/
|-----------------------|----------------------------------------------|
|--------------5--5--3--|-----------------5----------------------------|
|--0--3--3/-5-----------|--5--5-5-5-5-5-5----8--7--8---7-5-------------|

Chorus: 
|----------------------------------------------------------------------|
|----------------------------------------------------------------------|
|----------------------------------------------------------------------|
|-0-0-0--0-0-0--0--0-0-0--0--0-0-0--0-0-0--8/-10-----------------------|\
                                                                         | x4
|----------------------------------------------------------------------|/
|---------------------------------9--7---------------------------------|
|-----------------------------10---------9/10--------------------------|
|--0-0-0--0-0-0--0--0-0-0--0-------------------------------------------|

Ending:
|-------------------------------------------------|
|-------------------------------------------------|
|-------------------------------------------------|
|-0-0-0--0-0-0--0--0-0-0--0--0-0-0--0-0-0--8/-10--|

|-------------------------------------------------|
|-------------------------------------------------|
|----------------------------3----3-----------7---|
|-0-0-0--0-0-0--0--0-0-0--0-----------------------|

End.
comments
We did not receive enough feedback on this tab! Please rate:
print report bad tab
1 2 3 4 5
I want to post or [tab]
guest
You may want to rate the tab now too:
select rating
Please do not post tabs as comments. Select "correction" instead!