Oops, an error
Loading. Please wait.

Enlightened By The Cold Tab

ver3
ver3

Whole song

Interactive

More versions @911Tabs.com
307 views 1 this week
no commentswrite comment
1 2 3 4 5
please rate
Autoscroll
+/-
esc
set tempo
stop
Contributor
Difficulty
Tuning
intermediate
C G C F A D
Hey! There's an official Ultimate Guitar app which is ideal
for learning songs when you're away from computer. Get the app
WARNING: You are trying to view
                                    content from Ultimate-Guitar.com
                                    in an unauthorized application,
                                    which is prohibited.

                                    Please use an official Ultimate
                                    Guitar Tabs application for iPhone,
                                    iPad or Android to access legitimate
                                    chords, guitar, bass, and drum tabs
                                    from Ultimate-Guitar.com database.

                                    Type "ultimate guitar tabs" in Apple
                                    App Store's or Android Market's
                                    search to find the application.
-------------------------------------------------------------------------------
                     Enlightened by the cold - Shadows fall
-------------------------------------------------------------------------------
Tabbed by: richard 900
Email: richardh33@hotmail.com

Tuning: CGCFAD

intro

both guitars
D|---------------------------------------------------------------------------|
A|---------------------------------------------------------------------------|
F|---------------------------------------------------------------------------|
C|---------------------------------------------------------------------------|
G|-5h6-0-0-3p2-0-0-3h5-0-0-1p0-0-0-5h6-0-0-3p2-0-0-0---3---3/5*--------------|
C|-5h6-0-0-3p2-0-0-3h5-0-0-1p0-0-0-5h6-0-0-3p2-0-0-0-5---5-------------------|
PM     . .     . .     . .     . .     . .     . . . .   .

D|---------------------------------------------------------------------------|
A|---------------------------------------------------------------------------|
F|---------------------------------------------------------------------------|
C|---------------------------------------------------------------------------|
G|-5h6-0-0-3p2-0-0-3h5-0-0-1p0-0-0-5h6-0-0-3p2-0-0-0---3---3-----------------|
C|-5h6-0-0-3p2-0-0-3h5-0-0-1p0-0-0-5h6-0-0-3p2-0-0-0-5---5---5*--------------|
PM     . .     . .     . .     . .     . .     . . . .   .

Riff 1

guitar 1
D|---------------------------------------------------------------------------|
A|---------------------------------------------------------------------------|
F|---------------------------------------------------------------------------|
C|-------------------------------------------------8p7-----------------------|
G|-1p0-0-0-0-----0-3-0-6p5-0-1-0-0-0-5---7---8---7-----8---------------------|
C|-1p0-0-0-0-----0-3-0-6p5-0-1-0-0-0---0---0---0-----------------------------|
PM     . . .     .   .     .   . . .   .   .   .

D|---------------------------------------------------------------------------|
A|---------------------------------------------------------------------------|
F|---------------------------------------------------------------------------|
C|-----------------------------------5---3-------3---2-----------------------|
G|-1p0-0-0-0-----0-3-0-6p5-0-1-0-0-0---------5---------3---------------------|
C|-1p0-0-0-0-----0-3-0-6p5-0-1-0-0-0---0---0---0---0-------------------------|
PM     . . .     .   .     .   . . .   .   .   .   .

guitar 2
D|---------------------------------------------------------------------------|
A|---------------------------------------------------------------------------|
F|-------------------------------------------------7p5-----------------------|
C|-----------------------------------3---5---7---5-----7---------------------|
G|-1p0-0-0-0-----0-3-0-6p5-0-1-0-0-0-----------------------------------------|
C|-1p0-0-0-0-----0-3-0-6p5-0-1-0-0-0---0---0---0-----------------------------|
PM     . . .     .   .     .   . . .   .   .   .

D|---------------------------------------------------------------------------|
A|---------------------------------------------------------------------------|
F|---------------------------------------------------------------------------|
C|-----------------------------------8---7-------7---5-----------------------|
G|-1p0-0-0-0-----0-3-0-6p5-0-1-0-0-0---------8---------7---------------------|
C|-1p0-0-0-0-----0-3-0-6p5-0-1-0-0-0---0---0---0---0-------------------------|
PM     . . .     .   .     .   . . .   .   .   .   .

guitar 1
D|---------------------------------------------------------------------------|
A|---------------------------------------------------------------------------|
F|---------------------------------------------------------------------------|
C|-------------------------------------------------8p7-----------------------|
G|-1p0-0-0-0-0-0-0-3-0-6p5-0-1-0-0-0-5---7---8---7-----8---------------------|
C|-1p0-0-0-0-0-0-0-3-0-6p5-0-1-0-0-0---0---0---0-----------------------------|
PM     . . . . . .   .     .   . . .   .   .   .

D|---------------------------------------------------------------------------|
A|---------------------------------------------------------------------------|
F|---------------------------------------------------------------------------|
C|-----------------------------------5---3-------3---2-----------------------|
G|-1p0-0-0-0-0-0-0-3-0-6p5-0-1-0-0-0---------5---------3---------------------|
C|-1p0-0-0-0-0-0-0-3-0-6p5-0-1-0-0-0---0---0---0---0-------------------------|
PM     . . . . . .   .     .   . . .   .   .   .   . 

guitar 2
D|---------------------------------------------------------------------------|
A|---------------------------------------------------------------------------|
F|-------------------------------------------------7p5-----------------------|
C|-----------------------------------3---5---7---5-----7---------------------|
G|-1p0-0-0-0-0-0-0-3-0-6p5-0-1-0-0-0-----------------------------------------|
C|-1p0-0-0-0-0-0-0-3-0-6p5-0-1-0-0-0---0---0---0-----------------------------|
PM     . . . . . .   .     .   . . .   .   .   .

D|---------------------------------------------------------------------------|
A|---------------------------------------------------------------------------|
F|---------------------------------------------------------------------------|
C|-----------------------------------8---7-------7---5-----------------------|
G|-1p0-0-0-0-0-0-0-3-0-6p5-0-1-0-0-0---------8---------7---------------------|
C|-1p0-0-0-0-0-0-0-3-0-6p5-0-1-0-0-0---0---0---0---0-------------------------|
PM     . . . . . .   .     .   . . .   .   .   .   .

Chorus

D|---------------------------------------------------------------------------|
A|---------------------------------------------------------------------------|
F|-3333333333333333/555555555555555------------------------------------------|
C|-3333333333333333/555555555555555------------------------------------------|
G|-1111111111111111/333333333333333------------------------------------------|
C|---------------------------------------------------------------------------|

D|---------------------------------------------------------------------------|
A|---------------------------------------------------------------------------|
F|---------------------------------------------------------------------------|
C|-5/777/tttt\777-8--5/777/tttt\777-8----------------------------------------|
G|-3/555/8888\555-8--3/555/8888\555-8----------------------------------------|
C|----------------8-----------------8----------------------------------------|

D|---------------------------------------------------------------------------|
A|---------------------------------------------------------------------------|
F|-3333333333333333/555555555555555------------------------------------------|
C|-3333333333333333/555555555555555------------------------------------------|
G|-1111111111111111/333333333333333------------------------------------------|
C|---------------------------------------------------------------------------|

D|---------------------------------------------------------------------------|
A|---------------------------------------------------------------------------|
F|---------------------------------------------------------------------------|
C|-5/777/tttt\777-8--5/777/tttt\777-8----------------------------------------|
G|-3/555/8888\555-8--3/555/8888\555-8----------------------------------------|
C|----------------8-----------------8----------------------------------------|

Break

D|---------------------------------------------------------------------------|
A|---------------------------------------------------------------------------|
F|---------------------------------------------------------------------------|
C|---------------------------------------------------------------------------|
G|-00-00---------------------------------------------------------------------|
C|-00-00---------------------------------------------------------------------|
PM .. ..

(REPEAT RIFF 1)

(REPEAT CHORUS)

Riff 2

D|---------------------------------------------------------------------------|
A|---------------------------------------------------------------------------|
F|---------------------------------------------------------------------------|
C|---------3-------5-----------2---------------------------------------------|
G|-------5---5---3---3-----------3-------------------------------------------|
C|-0-0-0-------0-------0-0-0-3-----------------------------------------------|
PM . . .       .       . . . .

D|---------------------------------------------------------------------------|
A|---------------------------------------------------------------------------|
F|---------------------------------------------------------------------------|
C|---------3-------5-----------2---------------------------------------------|
G|-------5---5---3---3-----------3-------------------------------------------|
C|-0-0-0-------0-------0-0-0-3-----------------------------------------------|
PM . . .       .       . . . .

D|---------------------------------------------------------------------------|
A|---------------------------------------------------------------------------|
F|---------------------------------------------------------------------------|
C|---------3-------5-----------2---------------------------------------------|
G|-------5---5---3---3-----------3-------------------------------------------|
C|-0-0-0-------0-------0-0-0-3-----------------------------------------------|
PM . . .       .       . . . .

D|---------------------------------------------------------------------------|
A|---------------------------------------------------------------------------|
F|---------------------------------------------------------------------------|
C|---------3-------------3-2-------------------------------------------------|
G|-------5---5-----------1-0-------------------------------------------------|
C|-0-0-0-------0-0-0-0-0-----------------------------------------------------|
PM . . .       . . . . .      

RHYTHM UNDER SOLO

D|---------------------------------------------------------------------------|
A|---------------------------------------------------------------------------|
F|---------------------------------------------------------------------------|
C|-------7-----5----------------7-----5-----3-2------------------------------|
G|-0-0-0-5-0-0-3-0-0-3-2--0-0-0-5-0-0-3-0-0-1-0------------------------------|
C|-0-0-0---0-0---0-0-3-2--0-0-0---0-0---0-0----------------------------------|
PM . . .   . .   . .      . . .   . .   . .

SOLO

for the solo i have broken it down into 4 sections.

                
D|-----5-8-5-----------5-3-1-----|-----5-8-5-----10-13-10--------------------|
A|---------------------------3/5-|-----------/10----------13-10----13/15v----|
F|-5-7-------7-5-3-5-3-----------|-5-7--------------------------12-----------|
C|-------------------------------|-------------------------------------------|
G|-------------------------------|-------------------------------------------|
C|-------------------------------|-------------------------------------------|
PM . .       . . . . .             . .     

                                    
D|-----13-------------15----15-----------------------------------------------|
A|-13b----13-11---15b----15--------------------------------------------------|
F|---------------------------------------------------------------------------|
C|---------------------------------------------------------------------------|
G|---------------------------------------------------------------------------|
C|---------------------------------------------------------------------------|

 
D|----------15-17-15----------18-17-15---------------------------------------|
A|-15-17-18----------18-17-15----------18-17-15------------------------------|
F|----------------------------------------------15-17/19v--------------------|
C|---------------------------------------------------------------------------|
G|---------------------------------------------------------------------------|
C|---------------------------------------------------------------------------|


(REPEAT RIFF 1)

(REPEAT CHORUS)

(REPEAT RIFF 2)

RIFF 2 (with harmony)

D|---------------------------------------------------------------------------|
A|---------------------------------------------------------------------------|
F|---------------------------------------------------------------------------|
C|---------3-------5-----------2---------------------------------------------|
G|-------5---5---3---3-----------3-------------------------------------------|
C|-0-0-0-------0-------0-0-0-3-----------------------------------------------|
PM . . .       .       . . . .

D|---------------------------------------------------------------------------|
A|---------------------------------------------------------------------------|
F|---------------------------------------------------------------------------|
C|---------7-------9-----------6---------------------------------------------|
G|-------9---9---7---7-----------7-------------------------------------------|
C|-0-0-0-------0-------0-0-0-7-----------------------------------------------|
PM . . .       .       . . . .

END ON THIS

D|---------------------------------------------------------------------------|
A|---------------------------------------------------------------------------|
F|---------------------------------------------------------------------------|
C|-----------3-2-0-----------------------------------------------------------|
G|-0-0-0-0-0-1-0-0-----------------------------------------------------------|
C|-0-0-0-0-0-----0-----------------------------------------------------------|
PM . . . . .  
comments
We did not receive enough feedback on this tab! Please rate:
print report bad tab
1 2 3 4 5
I want to post or [tab]
guest
You may want to rate the tab now too:
select rating
Please do not post tabs as comments. Select "correction" instead!