Oops, an error
Loading. Please wait.

Enlightened By The Cold Tab

ver4
ver4

Whole song

Interactive

More versions @911Tabs.com
245 views 1 this week
no commentswrite comment
1 2 3 4 5
please rate
add to favorites launch autoscroll
font size
0
reset
Autoscroll
+/-
esc
set tempo
stop
Contributor
WARNING: You are trying to view
                                    content from Ultimate-Guitar.com
                                    in an unauthorized application,
                                    which is prohibited.

                                    Please use an official Ultimate
                                    Guitar Tabs application for iPhone,
                                    iPad or Android to access legitimate
                                    chords, guitar, bass, and drum tabs
                                    from Ultimate-Guitar.com database.

                                    Type "ultimate guitar tabs" in Apple
                                    App Store's or Android Market's
                                    search to find the application.
Band: Shadows Fall
Album: The War Within
Song: Enlightened By The Cold

Copyright (c) Century Media, 2004
Version 1.0 - 11/9/06

Transcribed By: William Davis (MaskOfSanity142)
Email: March_Of_Destruction@yahoo.com

Tuning: C G C F A D (From Top String Down)

D|--------------------------------------------------------------------------|
A|--------------------------------------------------------------------------|
F|--------------------------------------------------------------------------|
C|--------------------------------------------------------------------------|
G|-5/6--0-0--3\2--0-0--3/5--0-0--1p0--0-0--5/6--0-0--3\2--0-0-0----3---3-5--|
C|-5/6--0-0--3\2--0-0--3/5--0-0--1p0--0-0--5/6--0-0--3\2--0-0-0--5---5---a--|
        * *       * *       * *       * *       * *       * * *  *   *

D|--------------------------------------------------------------------------|
A|--------------------------------------------------------------------------|
F|--------------------------------------------------------------------------|
C|--------------------------------------------------------------------------|
G|-5/6--0-0--3\2--0-0--3/5--0-0--1p0--0-0--5/6--0-0--3\2--0-0-0----3---3-a--|
C|-5/6--0-0--3\2--0-0--3/5--0-0--1p0--0-0--5/6--0-0--3\2--0-0-0--5---5---5--|
        * *       * *       * *       * *       * *       * * *  *   *

D|------------------------------------------------------------------|
A|------------------------------------------------------------------|
F|------------------------------------------------------------------|
C|-----------------------------------------------------------8p7----|
G|--1p0--0-0-0--------0-3-0--6\5--0-1-0------5---7---8---7-------8--|
C|--1p0--0-0-0--------0-3-0--6\5--0-1-0--0-0---0---0---0---0--------|
 |       * *          *           *      * *   *   *   *   *
 |
 |
D|------------------------------------------------------------------|
A|------------------------------------------------------------------|
F|-----------------------------------------------------------7p5----|
C|-------------------------------------------3---5---7---5-------7--|
G|--1p0--0-0-0--------0-3-0--6\5--0-1-0-----------------------------|
C|--1p0--0-0-0--------0-3-0--6\5--0-1-0--0-0---0---0---0---0--------|
         * *          *           *      * *   *   *   *   *

D|----------------------------------------------------------------|
A|----------------------------------------------------------------|
F|----------------------------------------------------------------|
C|-------------------------------------------5---3-------3---2----|
G|--1p0--0-0-0--------0-3-0--6\5--0-1-0--------------5---------3--|
C|--1p0--0-0-0--------0-3-0--6\5--0-1-0--0-0---0---0---0---0------|
 |       * *          *           *      * *   *   *   *   *
 |
 |
D|----------------------------------------------------------------|
A|----------------------------------------------------------------|
F|----------------------------------------------------------------|
C|-------------------------------------------8---7-------7---5----|
G|--1p0--0-0-0--------0-3-0--6\5--0-1-0--------------8---------7--|
C|--1p0--0-0-0--------0-3-0--6\5--0-1-0--0-0---0---0---0---0------|
         * *          *           *      * *   *   *   *   *

D|---------------------------------------------------------------------|
A|---------------------------------------------------------------------|
F|---------------------------------------------------------------------|
C|--------------------------------------------------------------8p7----|
G|--1p0--0-0-0-0-0-0-0-0--3--0--6\5--0-1-0------5---7---8---7-------8--|
C|--1p0--0-0-0-0-0-0-0-0--3--0--6\5--0-1-0--0-0---0---0---0---0--------|
 |       * * * * * * * *             *      * *   *   *   *   *
 |
 |
D|---------------------------------------------------------------------|
A|---------------------------------------------------------------------|
F|--------------------------------------------------------------7p5----|
C|----------------------------------------------3---5---7---5-------7--|
G|--1p0--0-0-0-0-0-0-0-0--3--0--6\5--0-1-0-----------------------------|
C|--1p0--0-0-0-0-0-0-0-0--3--0--6\5--0-1-0--0-0---0---0---0---0--------|
         * * * * * * * *             *      * *   *   *   *   *

D|-------------------------------------------------------------------|
A|-------------------------------------------------------------------|
F|-------------------------------------------------------------------|
C|----------------------------------------------5---3-------3---2----|
G|--1p0--0-0-0-0-0-0-0-0--3--0--6\5--0-1-0--------------5---------3--|
C|--1p0--0-0-0-0-0-0-0-0--3--0--6\5--0-1-0--0-0---0---0---0---0------|
 |       * * * * * * * *             *      * *   *   *   *   *
 |
 |
D|-------------------------------------------------------------------|
A|-------------------------------------------------------------------|
F|-------------------------------------------------------------------|
C|----------------------------------------------8---7-------7---5----|
G|--1p0--0-0-0-0-0-0-0-0--3--0--6\5--0-1-0--------------8---------7--|
C|--1p0--0-0-0-0-0-0-0-0--3--0--6\5--0-1-0--0-0---0---0---0---0------|
         * * * * * * * *             *      * *   *   *   *   *

D|-----------------------------------------------------------------|
A|-----------------------------------------------------------------|
F|--7-7-7-7-7-7-7-7-7-7-7-7-7-7-7-7-7/9-9-9-9-9-9-9-9-9-9-9-9-9-9--|
C|--x-x-x-x-x-x-x-x-x-x-x-x-x-x-x-x-x-x-x-x-x-x-x-x-x-x-x-x-x-x-x--|
G|--5-5-5-5-5-5-5-5-5-5-5-5-5-5-5-5-5/7-7-7-7-7-7-7-7-7-7-7-7-7-7--|
C|-----------------------------------------------------------------|

                                            x2
D|--------------------------------------------|
A|--------------------------------------------|
F|--5-/-7-7-7-7-/-10-10-10-10-\-7-7-7-7-------|
C|--x---x-x-x-x---x--x--x--x----x-x-x-x-------|
G|--3-/-5-5-5-5-/-8--8--8--8--\-5-5-5-5--0-0--|
C|---------------------------------------0-0--|
                                         * *

D|-----------------------------------------------------------------|
A|-----------------------------------------------------------------|
F|--7-7-7-7-7-7-7-7-7-7-7-7-7-7-7-7-7/9-9-9-9-9-9-9-9-9-9-9-9-9-9--|
C|--x-x-x-x-x-x-x-x-x-x-x-x-x-x-x-x-x-x-x-x-x-x-x-x-x-x-x-x-x-x-x--|
G|--5-5-5-5-5-5-5-5-5-5-5-5-5-5-5-5-5/7-7-7-7-7-7-7-7-7-7-7-7-7-7--|
C|-----------------------------------------------------------------|

                                            x2
D|--------------------------------------------||------------|
A|--------------------------------------------||------------|
F|--5-/-7-7-7-7-/-10-10-10-10-\-7-7-7-7-------||------------|
C|--x---x-x-x-x---x--x--x--x----x-x-x-x-------||------------|
G|--3-/-5-5-5-5-/-8--8--8--8--\-5-5-5-5--0-0--||--0-0--0-0--|
C|---------------------------------------0-0--||--0-0--0-0--|
                                         * *      * *  * *

D|------------------------------------------------------------------|
A|------------------------------------------------------------------|
F|------------------------------------------------------------------|
C|-----------------------------------------------------------8p7----|
G|--1p0--0-0-0--------0-3-0--6\5--0-1-0------5---7---8---7-------8--|
C|--1p0--0-0-0--------0-3-0--6\5--0-1-0--0-0---0---0---0---0--------|
 |       * *          *           *      * *   *   *   *   *
 |
 |
D|------------------------------------------------------------------|
A|------------------------------------------------------------------|
F|-----------------------------------------------------------7p5----|
C|-------------------------------------------3---5---7---5-------7--|
G|--1p0--0-0-0--------0-3-0--6\5--0-1-0-----------------------------|
C|--1p0--0-0-0--------0-3-0--6\5--0-1-0--0-0---0---0---0---0--------|
         * *          *           *      * *   *   *   *   *

D|----------------------------------------------------------------|
A|----------------------------------------------------------------|
F|----------------------------------------------------------------|
C|-------------------------------------------5---3-------3---2----|
G|--1p0--0-0-0--------0-3-0--6\5--0-1-0--------------5---------3--|
C|--1p0--0-0-0--------0-3-0--6\5--0-1-0--0-0---0---0---0---0------|
 |       * *          *           *      * *   *   *   *   *
 |
 |
D|----------------------------------------------------------------|
A|----------------------------------------------------------------|
F|----------------------------------------------------------------|
C|-------------------------------------------8---7-------7---5----|
G|--1p0--0-0-0--------0-3-0--6\5--0-1-0--------------8---------7--|
C|--1p0--0-0-0--------0-3-0--6\5--0-1-0--0-0---0---0---0---0------|
         * *          *           *      * *   *   *   *   *

D|---------------------------------------------------------------------|
A|---------------------------------------------------------------------|
F|---------------------------------------------------------------------|
C|--------------------------------------------------------------8p7----|
G|--1p0--0-0-0-0-0-0-0-0--3--0--6\5--0-1-0------5---7---8---7-------8--|
C|--1p0--0-0-0-0-0-0-0-0--3--0--6\5--0-1-0--0-0---0---0---0---0--------|
 |       * * * * * * * *             *      * *   *   *   *   *
 |
 |
D|---------------------------------------------------------------------|
A|---------------------------------------------------------------------|
F|--------------------------------------------------------------7p5----|
C|----------------------------------------------3---5---7---5-------7--|
G|--1p0--0-0-0-0-0-0-0-0--3--0--6\5--0-1-0-----------------------------|
C|--1p0--0-0-0-0-0-0-0-0--3--0--6\5--0-1-0--0-0---0---0---0---0--------|
         * * * * * * * *             *      * *   *   *   *   *

D|-------------------------------------------------------------------|
A|-------------------------------------------------------------------|
F|-------------------------------------------------------------------|
C|----------------------------------------------5---3-------3---2----|
G|--1p0--0-0-0-0-0-0-0-0--3--0--6\5--0-1-0--------------5---------3--|
C|--1p0--0-0-0-0-0-0-0-0--3--0--6\5--0-1-0--0-0---0---0---0---0------|
 |       * * * * * * * *             *      * *   *   *   *   *
 |
 |
D|-------------------------------------------------------------------|
A|-------------------------------------------------------------------|
F|-------------------------------------------------------------------|
C|----------------------------------------------8---7-------7---5----|
G|--1p0--0-0-0-0-0-0-0-0--3--0--6\5--0-1-0--------------8---------7--|
C|--1p0--0-0-0-0-0-0-0-0--3--0--6\5--0-1-0--0-0---0---0---0---0------|
         * * * * * * * *             *      * *   *   *   *   *

D|-----------------------------------------------------------------|
A|-----------------------------------------------------------------|
F|--7-7-7-7-7-7-7-7-7-7-7-7-7-7-7-7-7/9-9-9-9-9-9-9-9-9-9-9-9-9-9--|
C|--x-x-x-x-x-x-x-x-x-x-x-x-x-x-x-x-x-x-x-x-x-x-x-x-x-x-x-x-x-x-x--|
G|--5-5-5-5-5-5-5-5-5-5-5-5-5-5-5-5-5/7-7-7-7-7-7-7-7-7-7-7-7-7-7--|
C|-----------------------------------------------------------------|

                                            x2
D|--------------------------------------------|
A|--------------------------------------------|
F|--5-/-7-7-7-7-/-10-10-10-10-\-7-7-7-7-------|
C|--x---x-x-x-x---x--x--x--x----x-x-x-x-------|
G|--3-/-5-5-5-5-/-8--8--8--8--\-5-5-5-5--0-0--|
C|---------------------------------------0-0--|
                                         * *

D|-----------------------------------------------------------------|
A|-----------------------------------------------------------------|
F|--7-7-7-7-7-7-7-7-7-7-7-7-7-7-7-7-7/9-9-9-9-9-9-9-9-9-9-9-9-9-9--|
C|--x-x-x-x-x-x-x-x-x-x-x-x-x-x-x-x-x-x-x-x-x-x-x-x-x-x-x-x-x-x-x--|
G|--5-5-5-5-5-5-5-5-5-5-5-5-5-5-5-5-5/7-7-7-7-7-7-7-7-7-7-7-7-7-7--|
C|-----------------------------------------------------------------|

                                            x2
D|--------------------------------------------|
A|--------------------------------------------|
F|--5-/-7-7-7-7-/-10-10-10-10-\-7-7-7-7-------|
C|--x---x-x-x-x---x--x--x--x----x-x-x-x-------|
G|--3-/-5-5-5-5-/-8--8--8--8--\-5-5-5-5--0-0--|
C|---------------------------------------0-0--|
                                         * *
                                      x3
D|--------------------------------------||------------------------------|
A|--------------------------------------||------------------------------|
F|--------------------------------------||------------------------------|
C|-----------3-------5-------------2----||-----------3-------5----3--2--|
G|--0-0-0--5---5---3---3--0-0-0------3--||--0-0-0--5---5---3---3--1--0--|
C|--0-0-0--------0--------0-0-0--3------||--0-0-0--------0--------------|
    * * *        *        * * *             * * *        *

Solo
D|-----5-8-5-----------5-3-1-----------5-8-5--------10-13-10----------------|
A|----------------------------3/5-------------8/11--------------------------|
F|-5-7-------5-3-2-3-2-------------5-7-----------------------12-------12/14-|
C|--------------------------------------------------------------15-12-------|
G|--------------------------------------------------------------------------|
C|--------------------------------------------------------------------------|
   * *         * * * *             * *                           *  *

D|------------------------------------------15-17-18-17-15-17-----------|
A|------18--------------20-----20--15-17-18-------------------15-17-18--|
F|--17b----17b-15~--19b----19b------------------------------------------|
C|----------------------------------------------------------------------|
G|----------------------------------------------------------------------|
C|----------------------------------------------------------------------|

D|--15-17-18-17-15-17---------------------------------|
A|--------------------15-17-18-17-15------------------|
F|-----------------------------------17-15-14--17b~~--|
C|----------------------------------------------------|
G|----------------------------------------------------|
C|----------------------------------------------------|

Solo Rhythm                                                               x2
D|--------------------------------------------------------------------------|
A|--------------------------------------------------------------------------|
F|--------------------------------------------------------------------------|
C|----------7-----------5--------------------------7-----------5-------3--2-|
G|-0-0-0-0--5--0-0-0-0--3--0-0-0-0--3--2--0-0-0-0--5--0-0-0-0--3--0-0--1--0-|
C|-0-0-0-0-----0-0-0-0-----0-0-0-0--3--2--0-0-0-0-----0-0-0-0-----0-0-------|
   * * * *     * * * *     * * * *        * * * *     * * * *     * *

D|------------------------------------------------------------------|
A|------------------------------------------------------------------|
F|------------------------------------------------------------------|
C|-----------------------------------------------------------8p7----|
G|--1p0--0-0-0--------0-3-0--6\5--0-1-0------5---7---8---7-------8--|
C|--1p0--0-0-0--------0-3-0--6\5--0-1-0--0-0---0---0---0---0--------|
 |       * *          *           *      * *   *   *   *   *
 |
 |
D|------------------------------------------------------------------|
A|------------------------------------------------------------------|
F|-----------------------------------------------------------7p5----|
C|-------------------------------------------3---5---7---5-------7--|
G|--1p0--0-0-0--------0-3-0--6\5--0-1-0-----------------------------|
C|--1p0--0-0-0--------0-3-0--6\5--0-1-0--0-0---0---0---0---0--------|
         * *          *           *      * *   *   *   *   *

D|----------------------------------------------------------------|
A|----------------------------------------------------------------|
F|----------------------------------------------------------------|
C|-------------------------------------------5---3-------3---2----|
G|--1p0--0-0-0--------0-3-0--6\5--0-1-0--------------5---------3--|
C|--1p0--0-0-0--------0-3-0--6\5--0-1-0--0-0---0---0---0---0------|
 |       * *          *           *      * *   *   *   *   *
 |
 |
D|----------------------------------------------------------------|
A|----------------------------------------------------------------|
F|----------------------------------------------------------------|
C|-------------------------------------------8---7-------7---5----|
G|--1p0--0-0-0--------0-3-0--6\5--0-1-0--------------8---------7--|
C|--1p0--0-0-0--------0-3-0--6\5--0-1-0--0-0---0---0---0---0------|
         * *          *           *      * *   *   *   *   *

D|---------------------------------------------------------------------|
A|---------------------------------------------------------------------|
F|---------------------------------------------------------------------|
C|--------------------------------------------------------------8p7----|
G|--1p0--0-0-0-0-0-0-0-0--3--0--6\5--0-1-0------5---7---8---7-------8--|
C|--1p0--0-0-0-0-0-0-0-0--3--0--6\5--0-1-0--0-0---0---0---0---0--------|
 |       * * * * * * * *             *      * *   *   *   *   *
 |
 |
D|---------------------------------------------------------------------|
A|---------------------------------------------------------------------|
F|--------------------------------------------------------------7p5----|
C|----------------------------------------------3---5---7---5-------7--|
G|--1p0--0-0-0-0-0-0-0-0--3--0--6\5--0-1-0-----------------------------|
C|--1p0--0-0-0-0-0-0-0-0--3--0--6\5--0-1-0--0-0---0---0---0---0--------|
         * * * * * * * *             *      * *   *   *   *   *

D|-------------------------------------------------------------------|
A|-------------------------------------------------------------------|
F|-------------------------------------------------------------------|
C|----------------------------------------------5---3-------3---2----|
G|--1p0--0-0-0-0-0-0-0-0--3--0--6\5--0-1-0--------------5---------3--|
C|--1p0--0-0-0-0-0-0-0-0--3--0--6\5--0-1-0--0-0---0---0---0---0------|
 |       * * * * * * * *             *      * *   *   *   *   *
 |
 |
D|-------------------------------------------------------------------|
A|-------------------------------------------------------------------|
F|-------------------------------------------------------------------|
C|----------------------------------------------8---7-------7---5----|
G|--1p0--0-0-0-0-0-0-0-0--3--0--6\5--0-1-0--------------8---------7--|
C|--1p0--0-0-0-0-0-0-0-0--3--0--6\5--0-1-0--0-0---0---0---0---0------|
         * * * * * * * *             *      * *   *   *   *   *

D|-----------------------------------------------------------------|
A|-----------------------------------------------------------------|
F|--7-7-7-7-7-7-7-7-7-7-7-7-7-7-7-7-7/9-9-9-9-9-9-9-9-9-9-9-9-9-9--|
C|--x-x-x-x-x-x-x-x-x-x-x-x-x-x-x-x-x-x-x-x-x-x-x-x-x-x-x-x-x-x-x--|
G|--5-5-5-5-5-5-5-5-5-5-5-5-5-5-5-5-5/7-7-7-7-7-7-7-7-7-7-7-7-7-7--|
C|-----------------------------------------------------------------|

                                            x2
D|--------------------------------------------|
A|--------------------------------------------|
F|--5-/-7-7-7-7-/-10-10-10-10-\-7-7-7-7-------|
C|--x---x-x-x-x---x--x--x--x----x-x-x-x-------|
G|--3-/-5-5-5-5-/-8--8--8--8--\-5-5-5-5--0-0--|
C|---------------------------------------0-0--|
                                         * *

D|-----------------------------------------------------------------|
A|-----------------------------------------------------------------|
F|--7-7-7-7-7-7-7-7-7-7-7-7-7-7-7-7-7/9-9-9-9-9-9-9-9-9-9-9-9-9-9--|
C|--x-x-x-x-x-x-x-x-x-x-x-x-x-x-x-x-x-x-x-x-x-x-x-x-x-x-x-x-x-x-x--|
G|--5-5-5-5-5-5-5-5-5-5-5-5-5-5-5-5-5/7-7-7-7-7-7-7-7-7-7-7-7-7-7--|
C|-----------------------------------------------------------------|

                                            x2
D|--------------------------------------------|
A|--------------------------------------------|
F|--5-/-7-7-7-7-/-10-10-10-10-\-7-7-7-7-------|
C|--x---x-x-x-x---x--x--x--x----x-x-x-x-------|
G|--3-/-5-5-5-5-/-8--8--8--8--\-5-5-5-5--0-0--|
C|---------------------------------------0-0--|
                                         * *

                                      x3
D|--------------------------------------||------------------------------|
A|--------------------------------------||------------------------------|
F|--------------------------------------||------------------------------|
C|-----------3-------5-------------2----||-----------3-------5----3--2--|
G|--0-0-0--5---5---3---3--0-0-0------3--||--0-0-0--5---5---3---3--1--0--|
C|--0-0-0--------0--------0-0-0--3------||--0-0-0--------0--------------|
    * * *        *        * * *             * * *        *
                                       x3
D|---------------------------------------||---------------------------------|
A|---------------------------------------||---------------------------------|
F|---------------------------------------||---------------------------------|
C|----------7---------8-------------5----||-----------7---------8----3--2--5|
G|-0-0-0--8---8--0--7---7--0-0-0------7--||--0-0-0--8---8--0--7---7--1--0--5|
C|-0-0-0---------0---------0-0-0--7------||--0-0-0---------0----------------|
   * * *         *         * * *             * * *         *

Notation:

b = Bend Full Step
* = Palm Mute
h = Hammer-On
p = Pull-Off
~ = vibrato
/ = Slide Up
\ = Slide Down
a = Pinch Harmonic
comments
We did not receive enough feedback on this tab! Please rate:
print report bad tab
1 2 3 4 5
I want to post or [tab]
guest
You may want to rate the tab now too:
select rating
Please do not post tabs as comments. Select "correction" instead!