Oops, an error
Loading. Please wait.

Eternal Tab

51 views 1 this week
no commentswrite comment
1 2 3 4 5
excellent!
x 1
Autoscroll
+/-
esc
set tempo
stop
Contributor
Difficulty
Tuning
advanced
C G C F A D
WARNING: You are trying to view
                                    content from Ultimate-Guitar.com
                                    in an unauthorized application,
                                    which is prohibited.

                                    Please use an official Ultimate
                                    Guitar Tabs application for iPhone,
                                    iPad or Android to access legitimate
                                    chords, guitar, bass, and drum tabs
                                    from Ultimate-Guitar.com database.

                                    Type "ultimate guitar tabs" in Apple
                                    App Store's or Android Market's
                                    search to find the application.
SHADOWS FALL - ETERNAL

     D|---------333-------------333-----------|
     A|---------------------------------------|
GTR  F|-----222-----555-----222-----555-------|
 1   C|-----------------333-------------------| x2
     G|-000-----------------------------------|
     C|---------------------------------------|

     D|---------------------------------------|
     A|---------------------------------------|
GTR  F|---------------------------------------|
 2   C|-7---------------3---------------------| x2
     G|-7---------------3---------------------|
     C|-7---------------3---------------------|

     D|-----------------------------------------------|
     A|-----------------------------------------------|
GTR  F|-----5-4---5-4---5--5p4-----5-4---5-4---5--5p4-|
 1   C|-----------------------------------------------|
     G|-3-3-----3-----3--------2-2-----2-----2--------|
     C|-----------------------------------------------|
        P M     PM    PM       P M     PM    PM

     D|-----------------------------------------------|
     A|-----------------------------------------------|
GTR  F|-----5-5---5-5---5-5-5------4-4---4-4---4-4-4--|
 2   C|-5-5-5-5-5-5-5-5-5-5-5--5-5-5-5-5-5-5-5-5-5-5--|
     G|-3-3-3-3-3-3-3-3-3-3-3--2-2-2-2-2-2-2-2-2-2-2--|
     C|-----------------------------------------------|
        P M     PM    PM       P M     PM    PM

then repeat all of the above


     D|---------333-------------333-----------|
     A|---------------------------------------|
GTR  F|-----222-----555-----222-----555-------|
 1   C|-----------------333-------------------| x2
     G|-000-----------------------------------|
     C|---------------------------------------|

     D|---------------------------------------|
     A|---------------------------------------|
GTR  F|---------------------------------------|
 2   C|-10---------------6--------------------|
     G|-10---------------6--------------------|
     C|-10---------------6--------------------|

     D|---------------------------------------|
     A|---------------------------------------|
GTR  F|----------12-12-12---------------------|
 2   C|-10-10-10-10-10-10-6-------------------|
     G|-10-10-10-10-10-10-6-------------------|
     C|-10-10-10-10-10-10-6---6/17\6----------|
        PM PM PM


     D|-----------------------------------------------|
     A|-----------------------------------------------|
GTR  F|-----5-4---5-4---5--5p4-----5-4---5-4---5--5p4-|
 1   C|-----------------------------------------------|
     G|-3-3-----3-----3--------2-2-----2-----2--------|
     C|-----------------------------------------------|
        P M     PM    PM       P M     PM    PM

     D|-----------------------------------------------|
     A|-----------------------------------------------|
GTR  F|-----5-5---5-5---5-5-5------4-4---4-4---4-4-4--|
 2   C|-5-5-5-5-5-5-5-5-5-5-5--5-5-5-5-5-5-5-5-5-5-5--|
     G|-3-3-3-3-3-3-3-3-3-3-3--2-2-2-2-2-2-2-2-2-2-2--|
     C|-----------------------------------------------|
        P M     PM    PM       P M     PM    PM

     D|-----------------------------------------------|
     A|-----------------------------------------------|
GTR  F|-----------------------------------------------|
 1   C|-----------------7-----------------------------|
     G|-5-4---5-4---4-5---5-4--5-4---5-4---4-5--4-----|
     C|-----------------------------------------------|

     D|-----------------------------------------------|
     A|-----------------------------------------------|
GTR  F|-----5-5---5-5---5-5-5------4-4---4-4---4-4-4--|
 2   C|-5-5-5-5-5-5-5-5-5-5-5--5-5-5-5-5-5-5-5-5-5-5--|
     G|-3-3-3-3-3-3-3-3-3-3-3--2-2-2-2-2-2-2-2-2-2-2--|
     C|-----------------------------------------------|
        P M     PM    PM       P M     PM    PM

     D|----------------------------------------|
     A|----------------------------------------|
GTR  F|----------------------------------------|
 1   C|-222222-111111-222222-------------------|
     G|-222222-111111-222222-3-2-3-2-1---------|
     C|-222222-111111-222222-3-2-3-2-1---------|
                             P M P M PM

     D|----------------------------------------|
     A|----------------------------------------|
GTR  F|----------------------------------------|
 2   C|----------------------------------------|
     G|----------------------3-2-3-2-1---------|
     C|----------------------3-2-3-2-1---------|
                             P M P M PM

     D|----------------------------------------|
     A|----------------------------------------|
GTR  F|----------------------------------------|
1+2  C|----------------4-----------------------| x4
     G|-5--5-4--4-5--5-4--4--6-5-4-5-----------|
     C|-5--5-4--4-5--5-4--4--6-5-4-5-----------|
          PM   PM   PM   PM  P M P M

     D|----------------------------------------|
     A|----------------------------------------|
GTR  F|----------------------------------------|
1+2  C|-----------7--7---4---------------------| x4
     G|-5--5-4--4-5--5-5-4--4--6-5-4-5- -------|
     C|-5--5-4--4------5-4--4--6-5-4-5---------|
          PM   PM   PM      PM P M P M


     D|----------------------------------------|
     A|----------------------------------------|
GTR  F|----------------------------------------|
1+2  C|--------------5-------------------------|
     G|-0-0000-2-0-2-5-------------------------|
     C|-0-0000-2-0-2-5-------------------------|
          PMPM P MPM


     D|----------------------------------------|
     A|----------------------------------------|
GTR  F|----------------------------------------|
1+2  C|-----------------------5/4--------------| x8
     G|-0-2-0-2-3-2-0-5-3-2-0-3/2-0--5---------|
     C|-0-2-0-2-3-2-0-5-3-2-0-----0--5---------|
        P M P M P M P M P MPM     PM

     D|----------------------------------------|
     A|----------------------------------------|
GTR  F|--------------6-------------------------|
1+2  C|-1-1-1------------5-4-------------------|
     G|-1-1-1------------5-4-------------------|
     C|-1-1-1------------5-4-------------------|

     D|---------333-------------333------------|
     A|----------------------------------------|
GTR  F|-----222-----555-----222-----555--------| 1,7
 1   C|-----------------333--------------------|
     G|-000------------------------------------|
     C|----------------------------------------|

     D|----------------------------------------|
     A|----------------------------------------|
GTR  F|----------------------------------------|
 2   C|-7---------------3----------------------| 1,7
     G|-7---------------3----------------------|
     C|-7---------------3----------------------|

     D|----------------------------------------|
     A|----------------------------------------|
GTR  F|----------------------------------------|
1+2  C|-----------7--7---4---------------------| 2,4,6,8,10,12
     G|-5--5-4--4-5--5-5-4--4--6-5-4-5- -------|
     C|-5--5-4--4------5-4--4--6-5-4-5---------|
          PM   PM   PM      PM P M P M

     D|----------------------------------------|
     A|----------------------------------------|
GTR  F|-----5-4---5-4---5--5p4-----------------|
 1   C|----------------------------------------| 3,5,9,11
     G|-3-3-----3-----3------------------------|
     C|----------------------------------------|
        P M     PM    PM

     D|----------------------------------------|
     A|----------------------------------------|
GTR  F|-----5-5---5-5---5-5-5------------------|
 2   C|-5-5-5-5-5-5-5-5-5-5-5------------------| 3,5,9,11
     G|-3-3-3-3-3-3-3-3-3-3-3------------------|
     C|----------------------------------------|
        P M     PM    PM

     D|----------------------------------------|
     A|----------------------------------------|
GTR  F|----------------------------------------|
1+2  C|--------------5-------------------------|
     G|-0-0000-2-0-2-5-------------------------|
     C|-0-0000-2-0-2-5-------------------------|
          PMPM P MPM


     D|----------------------------------------|
     A|----------------------------------------|
GTR  F|----------------------------------------|
1+2  C|-----------------------5/4--------------| x8
     G|-0-2-0-2-3-2-0-5-3-2-0-3/2-0--5---------|
     C|-0-2-0-2-3-2-0-5-3-2-0-----0--5---------|
        P M P M P M P M P MPM     PM

     D|--------------------------------------------|
     A|--------------------------------------------|
GTR  F|--------------------------------------------|
 1   C|--------------------------------------------|
     G|-1--------------2-1-------------------------|
     C|-1--------------2-1-------------------------|

     D|--------------------------------------------|
     A|--------------------------------------------|
GTR  F|---11-11-12-12------11-11-12-12-14-14-15-15-|
 2   C|--------------------------------------------|
     G|--------------------------------------------|
     C|--------------------------------------------|

     D|----------------------------------------|
     A|----------------------------------------|
GTR  F|---------4444-55555555------------------|
 1   C|-3--------------------------------------|
     G|-1---------------------55555-44444------|
     C|----------------------------------------|

     D|----------------------------------------|
     A|----------------------------------------|
GTR  F|---4h7-4h7----5555555-------------------|
 2   C|----------------------------------------|
     G|----------------------5h8-5h8-44444-----|
     C|----------------------------------------|


     D|--------------------------------------------|
     A|--------------------------------------------|
GTR  F|--------------------------------------------|
 1   C|--------------------------------------------|
     G|-1--------------2-1-------------------------|
     C|-1--------------2-1-------------------------|

     D|--------------------------------------------|
     A|--------------------------------------------|
GTR  F|---11-11-12-12------11-11-12-12-14-14-15-15-|
 2   C|--------------------------------------------|
     G|--------------------------------------------|
     C|--------------------------------------------|


     D|----------------------------------------|
     A|----------------------------------------|
GTR  F|----------------------------------------|
1+2  C|-8------------------8-7-5-7-8-7-5-------|
     G|-6-5-4-3-4-3-2-1--1-6-5-3-5-6-5-3-------|
     C|---5-4-3-4-3-2-1--1---------------------|
          P M P M P M PM PMPMP M P M P M

     D|--------------------------------------------|
     A|--------------------------------------------|
GTR  F|--------------------------------------------|
 1   C|--------------------------------------------|
     G|-1--------------2-1-------------------------|
     C|-1--------------2-1-------------------------|

     D|--------------------------------------------|
     A|--------------------------------------------|
GTR  F|---11-11-12-12------11-11-12-12-14-14-15-15-|
 2   C|--------------------------------------------|
     G|--------------------------------------------|
     C|--------------------------------------------|

     D|----------------------------------------|
     A|----------------------------------------|
GTR  F|---------4444-55555555------------------|
 1   C|-3--------------------------------------|
     G|-1---------------------55555-44444------|
     C|----------------------------------------|

     D|----------------------------------------|
     A|----------------------------------------|
GTR  F|---4h7-4h7----5555555-------------------|
 2   C|----------------------------------------|
     G|----------------------5h8-5h8-44444-----|
     C|----------------------------------------|


     D|----------------------------------------|
     A|----------------------------------------|
GTR  F|----------------------------------------|
1+2  C|-1--------------------------------------|
     G|-1-(LR)---------------------------------|
     C|-1--------------------------------------|

     D|----------------------------------------|
     A|----------------------------------------|
GTR  F|----------------------------------------|
1+2  C|---------------------2222-1111-3333-----| 1,3,5,7
     G|-2222-0000------0000--------------------|
     C|-----------3333-------------------------|


     D|----------------------------------------|
     A|----------------------------------------|
GTR  F|----------------------------------------|
 1   C|---------------------2222-1111-4444-----| 2,4,6,8
     G|-2222-0000------0000--------------------|
     C|-----------3333-------------------------|

     D|----------------------------------------|
     A|----------------------------------------|
GTR  F|----------------------------------------|
 2   C|----------------------------------------| 2,4,6,8
     G|-2222-0000------0000-4444-3333-6666-----|
     C|-----------3333-------------------------|

     D|----------------------------------------|
     A|----------------------------------------|
GTR  F|---4-7-4-7----5-8-5-8-------------------|
 1   C|----------------------------------------|
     G|----------------------5-8-5-8-4-7-4-7---|
     C|----------------------------------------|

     D|----------------------------------------|
     A|----------------------------------------|
GTR  F|---4h7-4h7----5555555-------------------|
 2   C|----------------------------------------|
     G|----------------------5h8-5h8-44444-----|
     C|----------------------------------------|

     D|----------------------------------------------|
     A|----------------------------------------------|
GTR  F|----------------------------------------------|
 1   C|----------------------------------------------|
     G|-1-1--------------------------------------0-0-|
     C|-1-1--------------------------------------0-0-|
        P M                                      P M

     D|----------------------------------------------|
     A|----------------------------------------------|
GTR  F|------9h12-9h12-8h11-5h8-5p2-5p1-1h5-1h5------|
 2   C|----------------------------------------------|
     G|----------------------------------------------|
     C|----------------------------------------------|

     D|-------- x2 ---------|------- x2 ----------|-------- x2 ---------|--|
     ----------------------------------------------------------------------|

     D|-------- x2 ---------|------- x2 ----------|
     A|---------------------|---------------------|
GTR  F|---------------------|---------------------|
1+2  C|-3333------3333-5555-|-3333------3333-5555-|
     G|---------------------|---------------------|
     C|------7777-----------|------6666-----------|

     D|-------- x2 ---------|---------------------------------------|
     A|---------------------|---------------------------------------|
GTR  F|---------------------|---------------------------------------|
1+2  C|-3333------3333-5555-|-----------33333333--------------------|
     G|---------------------|-0000-3333-----------22222222-33333333-|
     C|------7777-----------|---------------------------------------|

PLAY WHOLE SECTION X3
---------------------------------------------------------

     D|---------------------------------------|
     A|---------------------------------------|
GTR  F|---------------------------------------|
1+2  C|-----------33333333-2222---------------|
     G|-0000-3333---------------2222-33333333-|
     C|---------------------------------------|

     D|--------------------------------------|
     A|--------------------------------------|
GTR  F|--------------------------------------|
1+2  C|-----------33333333-------------------|
     G|-0000-3333----------22222222-33333333-|
     C|--------------------------------------|

     D|---------------------------------------|
     A|---------------------------------------|
GTR  F|---------------------------------------|
1+2  C|-----------33333333-2222---------------|
     G|-0000-3333---------------2222-33333333-|
     C|---------------------------------------|

     D|----------------------------------------|
     A|----------------------------------------|
GTR  F|----------------------------------------|
1+2  C|------------7-6-5-4-3-------------------|
     G|-0--0--0--0-5-4-3-2-1-0-----------------|
     C|-0--0--0--0-----------0-----------------|
        PM PM PM PMP M P M P M

     D|----------------------------------------|
     A|----------------------------------------|
GTR  F|----------------------------------------|
1+2  C|-----------7--7---4---------------------| x4
     G|-5--5-4--4-5--5-5-4--4--6-5-4-5---------|
     C|-5--5-4--4------5-4--4--6-5-4-5---------|
          PM   PM   PM      PM P M P M

     D|----------------------------------------|
     A|----------------------------------------|
GTR  F|----------------------------------------|
1+2  C|----------------------------------------|
     G|-0--0--0--------------------------------|
     C|-0--0--0--------------------------------|
        PM PM PM

     D|----------------------------------------|
     A|----------------------------------------|
GTR  F|----------------------------------------|
1+2  C|---------------------2222-1111-3333-----| 1,3
     G|-2222-0000------0000--------------------|
     C|-----------3333-------------------------|

     D|----------------------------------------|
     A|----------------------------------------|
GTR  F|----------------------------------------|
 1   C|---------------------2222-1111-4444-----| 2,4
     G|-2222-0000------0000--------------------|
     C|-----------3333-------------------------|

     D|----------------------------------------|
     A|----------------------------------------|
GTR  F|----------------------------------------|
 2   C|----------------------------------------| 2,4
     G|-2222-0000------0000-4444-3333-6666-----|
     C|-----------3333-------------------------|

     D|--------------------------------------------|
     A|--------------------------------------------|
GTR  F|--------------------------------------------|
 1   C|--------------------------------------------|
     G|-1--------------2-1-------------------------|
     C|-1--------------2-1-------------------------|

     D|--------------------------------------------|
     A|--------------------------------------------|
GTR  F|---11-11-12-12------11-11-12-12-14-14-15-15-|
 2   C|--------------------------------------------|
     G|--------------------------------------------|
     C|--------------------------------------------|


     D|----------------------------------------|
     A|----------------------------------------|
GTR  F|----------------------------------------|
1+2  C|-8------------------8-7-5-7-8-7-5-------|
     G|-6-5-4-3-4-3-2-1--1-6-5-3-5-6-5-3-------|
     C|---5-4-3-4-3-2-1--1---------------------|
          P M P M P M PM PMPMP M P M P M


     D|--------------------------------------------|
     A|--------------------------------------------|
GTR  F|--------------------------------------------|
 1   C|--------------------------------------------|
     G|-1--------------2-1-------------------------|
     C|-1--------------2-1-------------------------|

     D|--------------------------------------------|
     A|--------------------------------------------|
GTR  F|---11-11-12-12------11-11-12-12-14-14-15-15-|
 2   C|--------------------------------------------|
     G|--------------------------------------------|
     C|--------------------------------------------|

     D|-------|
     A|-------|
GTR  F|-------|
1+2  C|-1-----|
     G|-1-----|
     C|-1-----|

THE END
comments
We did not receive enough feedback on this tab! Please rate:
print report bad tab
1 2 3 4 5
I want to post or [tab]
guest
You may want to rate the tab now too:
select rating
Please do not post tabs as comments. Select "correction" instead!