Oops, an error
Loading. Please wait.

Nothing Remains Tab

529 views 3 this week
no commentswrite comment
1 2 3 4 5
excellent!
x 1
Autoscroll
+/-
esc
set tempo
stop
Contributor
Difficulty
Tuning
intermediate
C G C F A D
WARNING: You are trying to view
                                    content from Ultimate-Guitar.com
                                    in an unauthorized application,
                                    which is prohibited.

                                    Please use an official Ultimate
                                    Guitar Tabs application for iPhone,
                                    iPad or Android to access legitimate
                                    chords, guitar, bass, and drum tabs
                                    from Ultimate-Guitar.com database.

                                    Type "ultimate guitar tabs" in Apple
                                    App Store's or Android Market's
                                    search to find the application.
----------------------------------------------------------------------------
                              Nothing Remains
                               Shadows Fall
----------------------------------------------------------------------------

If there was proof to show that Shadows Fall is incredibly under-rated, “Fire from the
Sky” would be it. It is one of the greatest albums I have encountered, but does not
obtain as much recognition as it should. This song is extremely catchy and has enjoyable
guitar riffs. The solo is excellent. Enjoy!

Username: dkm817 (same on X box live)
Youtube Cover: http://www.youtube.com/watch?v=aVuWyY0xMFY
Email: guitardrums@rockfan.com

Guitar 1 Rhythmic (C G C F A D)
Guitar 2 Lead     (C G C F A D)


Tab Guide...

==================================================================
(end of measures)

==================================================================
==================================================================
(end of parts)

==================================================================
==================================================================
==================================================================
(end of song)

(If there is a “continued” it is because the numbers could not
fit on 1 line.)

Intro

(x2)

Guitar 1 & 2
D-------------------------------------------------------------|
A-------------------------------------------------------------|
F-5---7---7---7~~~~~~-----5---7---7---7~~~~~~-----5---7---7---|
C-5---7---7---7~~~~~~-0---5---7---7---7~~~~~~-0---5---7---7---|
G-3---5---5---5~~~~~~-0---3---5---5---5~~~~~~-0---3---5---5---|
C---------------------0-----------------------0---------------|
pm                    .                       .

==============================================================

Guitar 1 & 2
D-------------------------------------------------------------|
A-------------------------------------------------------------|
F-7~~~~~~-----------------------------------------------------|
C-7~~~~~~-0---0-0-0---0---3---5---0---8---0---0---6---6---6---|
G-5~~~~~~-0---0-0-0---0---3---5---0---8---0---0---6---6---6---|
C---------0---0-0-0---0---3---5---0---8---0---0---6---6---6---|
pm        .   . . .   .           .       .   .

==============================================================

Guitar 1 & 2
D-------------------------------------------------------------|
A-------------------------------------------------------------|
F-5---7---7---7~~~~~~-----5---7---7---7~~~~~~-----5---7---7---|
C-5---7---7---7~~~~~~-0---5---7---7---7~~~~~~-0---5---7---7---|
G-3---5---5---5~~~~~~-0---3---5---5---5~~~~~~-0---3---5---5---|
C---------------------0-----------------------0---------------|
pm                    .                       .

==============================================================

Guitar 1 & 2
D-------------------------------------------------------------|
A-------------------------------------------------------------|
F-7~~~~~~-----------------------------------------------------|
C-7~~~~~~-0---0-0-0---0---3---5---0---8---0---0---1---1---1---|
G-5~~~~~~-0---0-0-0---0---3---5---0---8---0---0---1---1---1---|
C---------0---0-0-0---0---3---5---0---8---0---0---1---1---1---|
pm        .   . . .   .           .       .   .

==============================================================
==============================================================


Verse 1

Guitar 1 & 2
D-------------------------------------------------------------|
A-------------------------------------------------------------|
F-------------------------------------------------------------|
C-1-0-0-0-0-0-0-0-0-0-0-0-0-0-0-0-0-0-0-0-0-0-0-0-3-5-0-6-6-6-|
G-1-0-0-0-0-0-0-0-0-0-0-0-0-0-0-0-0-0-0-0-0-0-0-0-3-5-0-6-6-6-|
C-1-0-0-0-0-0-0-0-0-0-0-0-0-0-0-0-0-0-0-0-0-0-0-0-3-5-0-6-6-6-|
pm    . . . . . . . . . . . . . . . . . . . . . .     .

==============================================================

Guitar 1 & 2
D-------------------------------------------------------------|
A-------------------------------------------------------------|
F-------------------------------------------------------------|
C-1-0-0-0-0-0-0-0-0-0-0-0-0-0-0-0-0-0-0-0-0-0-0-0-3-5-0-1-1-1-|
G-1-0-0-0-0-0-0-0-0-0-0-0-0-0-0-0-0-0-0-0-0-0-0-0-3-5-0-1-1-1-|
C-1-0-0-0-0-0-0-0-0-0-0-0-0-0-0-0-0-0-0-0-0-0-0-0-3-5-0-1-1-1-|
pm    . . . . . . . . . . . . . . . . . . . . . .     .

==============================================================

Guitar 1 & 2
D-------------------------------------------------------------|
A-------------------------------------------------------------|
F-------------------------------------------------------------|
C-1-0-0-0-0-0-0-0-0-0-0-0-0-0-0-0-0-0-0-0-0-0-0-0-3-5-0-6-6-6-|
G-1-0-0-0-0-0-0-0-0-0-0-0-0-0-0-0-0-0-0-0-0-0-0-0-3-5-0-6-6-6-|
C-1-0-0-0-0-0-0-0-0-0-0-0-0-0-0-0-0-0-0-0-0-0-0-0-3-5-0-6-6-6-|
pm    . . . . . . . . . . . . . . . . . . . . . .     .

==============================================================

Guitar 1 & 2
D-------------------------------------------------------------|
A-------------------------------------------------------------|
F-------------------------------------------------------------|
C-1-0-0-0-0-0-0-0-0-0-0-0-0-0-0-0-0-0-0-0-0-0-0-0-3-5-0-1-----|
G-1-0-0-0-0-0-0-0-0-0-0-0-0-0-0-0-0-0-0-0-0-0-0-0-3-5-0-1-----|
C-1-0-0-0-0-0-0-0-0-0-0-0-0-0-0-0-0-0-0-0-0-0-0-0-3-5-0-1-----|
pm    . . . . . . . . . . . . . . . . . . . . . .     .

==============================================================
==============================================================


Pre Chorus

Guitar 1 & 2
D-------------------------------------------------------------|
A-------------------------------------------------------------|
F-5---7---7---7~~~~~~-----5---7---7---7~~~~~~-----5---7---7---|
C-5---7---7---7~~~~~~-0---5---7---7---7~~~~~~-0---5---7---7---|
G-3---5---5---5~~~~~~-0---3---5---5---5~~~~~~-0---3---5---5---|
C---------------------0-----------------------0---------------|
pm                    .                       .

==============================================================

Guitar 1 & 2
D-------------------------------------------------------------|
A-------------------------------------------------------------|
F-7~~~~~~-----------------------------------------------------|
C-7~~~~~~-0---0-0-0---0---3---5---0---8---0---0---6---6---6---|
G-5~~~~~~-0---0-0-0---0---3---5---0---8---0---0---6---6---6---|
C---------0---0-0-0---0---3---5---0---8---0---0---6---6---6---|
pm        .   . . .   .           .       .   .

==============================================================

Guitar 1 & 2
D-------------------------------------------------------------|
A-------------------------------------------------------------|
F-5---7---7---7~~~~~~-----5---7---7---7~~~~~~-----5---7---7---|
C-5---7---7---7~~~~~~-0---5---7---7---7~~~~~~-0---5---7---7---|
G-3---5---5---5~~~~~~-0---3---5---5---5~~~~~~-0---3---5---5---|
C---------------------0-----------------------0---------------|
pm                    .                       .

==============================================================

Guitar 1 & 2
D-------------------------------------------------------------------|
A-------------------------------------------------------------------|
F-7~~~~~~-----------------------------------------------------------|
C-7~~~~~~-0---0-0-0---0---3---5---0---8---0---0---6~~~~-5~~~~-3~~~~-|
G-5~~~~~~-0---0-0-0---0---3---5---0---8---0---0---6~~~~-5~~~~-3~~~~-|
C---------0---0-0-0---0---3---5---0---8---0---0---6~~~~-5~~~~-3~~~~-|
pm        .   . . .   .           .       .   .

==============================================================
==============================================================


Chorus 1

Guitar 1
D-------------------------------------------------------------|
A-------------------------------------------------------------|
F-------------------------------------------------------------|
C-0~~~~~~~~~~-8~~~~~~~~~~-10~~~~~~~~~-5~~~~-5-5-5-5---3---1---|
G-0~~~~~~~~~~-8~~~~~~~~~~-10~~~~~~~~~-5~~~~-5-5-5-5---3---1---|
C-0~~~~~~~~~~-8~~~~~~~~~~-10~~~~~~~~~-5~~~~-5-5-5-5---3---1---|
pm                                          . . .

Guitar 2
D-------5~~~~~~~~~~-------------3~~~~-------------------------|
A-------------------6~~~~-------------------------------------|
F-7~~~~~~~~~~-7~~~~~~~~~~-5~~~~~~~~~~-5~~~~~~~~~~-7---5---7---|
C-------------------------------------------------------------|
G-------------------------------------------------------------|
C-------------------------------------------------------------|

==============================================================

Guitar 1
D-------------------------------------------------------------|
A-------------------------------------------------------------|
F-------------------------------------------------------------|
C-0~~~~~~~~~~-8~~~~~~~~~~-10~~~~~~~~~-5~~~~-5-5-5-5---3---8---|
G-0~~~~~~~~~~-8~~~~~~~~~~-10~~~~~~~~~-5~~~~-5-5-5-5---3---8---|
C-0~~~~~~~~~~-8~~~~~~~~~~-10~~~~~~~~~-5~~~~-5-5-5-5---3---8---|
pm                                          . . .

Guitar 2
D-------5~~~~~~~~~~-------------3~~~~-------------------------|
A-------------------6~~~~-------------------------------------|
F-7~~~~~~~~~~-7~~~~~~~~~~-5~~~~~~~~~~-5~~~~~~~~~~-7---5---7---|
C-------------------------------------------------------------|
G-------------------------------------------------------------|
C-------------------------------------------------------------|

==============================================================
==============================================================


Bridge 1

Guitar 1
D-------------------------------------------------|
A-------------------------------------------------|
F-------------------------------------------------|
C-------------------------------------------------|
G-------------------------------------------------|
C-0---0-0-0---0---0---0---0---0-0-0---0---0---0---|
pm.   . . .   .   .   .   .   . . .   .   .   .

Guitar 2
D-------------------------------------------------|
A-------------------------------------------------|
F-7~~~~~~~~~~~~~~~~~~~~~~~~~~~~~~~~~~~~~~~~~~~~~~-
C-------------------------------------------------|
G-------------------------------------------------|
C-------------------------------------------------|

==============================================================
==============================================================


Verse 2

Guitar 1 & 2
D-------------------------------------------------------------|
A-------------------------------------------------------------|
F-------------------------------------------------------------|
C-1-0-0-0-0-0-0-0-0-0-0-0-0-0-0-0-0-0-0-0-0-0-0-0-3-5-0-6-6-6-|
G-1-0-0-0-0-0-0-0-0-0-0-0-0-0-0-0-0-0-0-0-0-0-0-0-3-5-0-6-6-6-|
C-1-0-0-0-0-0-0-0-0-0-0-0-0-0-0-0-0-0-0-0-0-0-0-0-3-5-0-6-6-6-|
pm    . . . . . . . . . . . . . . . . . . . . . .     .

==============================================================

Guitar 1 & 2
D-------------------------------------------------------------|
A-------------------------------------------------------------|
F-------------------------------------------------------------|
C-1-0-0-0-0-0-0-0-0-0-0-0-0-0-0-0-0-0-0-0-0-0-0-0-3-5-0-1-1-1-|
G-1-0-0-0-0-0-0-0-0-0-0-0-0-0-0-0-0-0-0-0-0-0-0-0-3-5-0-1-1-1-|
C-1-0-0-0-0-0-0-0-0-0-0-0-0-0-0-0-0-0-0-0-0-0-0-0-3-5-0-1-1-1-|
pm    . . . . . . . . . . . . . . . . . . . . . .     .

==============================================================

Guitar 1 & 2
D-------------------------------------------------------------|
A-------------------------------------------------------------|
F-------------------------------------------------------------|
C-1-0-0-0-0-0-0-0-0-0-0-0-0-0-0-0-0-0-0-0-0-0-0-0-3-5-0-6-6-6-|
G-1-0-0-0-0-0-0-0-0-0-0-0-0-0-0-0-0-0-0-0-0-0-0-0-3-5-0-6-6-6-|
C-1-0-0-0-0-0-0-0-0-0-0-0-0-0-0-0-0-0-0-0-0-0-0-0-3-5-0-6-6-6-|
pm    . . . . . . . . . . . . . . . . . . . . . .     .

==============================================================

Guitar 1 & 2
D-------------------------------------------------------------|
A-------------------------------------------------------------|
F-------------------------------------------------------------|
C-1-0-0-0-0-0-0-0-0-0-0-0-0-0-0-0-0-0-0-0-0-0-0-0-3-5-0-------|
G-1-0-0-0-0-0-0-0-0-0-0-0-0-0-0-0-0-0-0-0-0-0-0-0-3-5-0-5*~~~-|
C-1-0-0-0-0-0-0-0-0-0-0-0-0-0-0-0-0-0-0-0-0-0-0-0-3-5-0-------|
pm    . . . . . . . . . . . . . . . . . . . . . .     .

==============================================================

Guitar 1 & 2
D-------------------------------------------------------------|
A-------------------------------------------------------------|
F-------------------------------------------------------------|
C-1-0-0-0-0-0-0-0-0-0-0-0-0-0-0-0-0-0-0-0-0-0-0-0-3-5-0-6-6-6-|
G-1-0-0-0-0-0-0-0-0-0-0-0-0-0-0-0-0-0-0-0-0-0-0-0-3-5-0-6-6-6-|
C-1-0-0-0-0-0-0-0-0-0-0-0-0-0-0-0-0-0-0-0-0-0-0-0-3-5-0-6-6-6-|
pm    . . . . . . . . . . . . . . . . . . . . . .     .

==============================================================

Guitar 1 & 2
D-------------------------------------------------------------|
A-------------------------------------------------------------|
F-------------------------------------------------------------|
C-1-0-0-0-0-0-0-0-0-0-0-0-0-0-0-0-0-0-0-0-0-0-0-0-3-5-0-1-1-1-|
G-1-0-0-0-0-0-0-0-0-0-0-0-0-0-0-0-0-0-0-0-0-0-0-0-3-5-0-1-1-1-|
C-1-0-0-0-0-0-0-0-0-0-0-0-0-0-0-0-0-0-0-0-0-0-0-0-3-5-0-1-1-1-|
pm    . . . . . . . . . . . . . . . . . . . . . .     .

==============================================================

Guitar 1 & 2
D-------------------------------------------------------------|
A-------------------------------------------------------------|
F-------------------------------------------------------------|
C-1-0-0-0-0-0-0-0-0-0-0-0-0-0-0-0-0-0-0-0-0-0-0-0-3-5-0-6-6-6-|
G-1-0-0-0-0-0-0-0-0-0-0-0-0-0-0-0-0-0-0-0-0-0-0-0-3-5-0-6-6-6-|
C-1-0-0-0-0-0-0-0-0-0-0-0-0-0-0-0-0-0-0-0-0-0-0-0-3-5-0-6-6-6-|
pm    . . . . . . . . . . . . . . . . . . . . . .     .

==============================================================

Guitar 1 & 2
D-------------------------------------------------------------|
A-------------------------------------------------------------|
F-------------------------------------------------------------|
C-1-0-0-0-0-0-0-0-0-0-0-0-0-0-0-0-0-0-0-0-0-0-0-0-3-5-0-12\~~-|
G-1-0-0-0-0-0-0-0-0-0-0-0-0-0-0-0-0-0-0-0-0-0-0-0-3-5-0-12\~~-|
C-1-0-0-0-0-0-0-0-0-0-0-0-0-0-0-0-0-0-0-0-0-0-0-0-3-5-0-12\~~-|
pm    . . . . . . . . . . . . . . . . . . . . . .     .

==============================================================
==============================================================


Chorus 2

(x2)

Guitar 1
D-------------------------------------------------------------|
A-------------------------------------------------------------|
F-------------------------------------------------------------|
C-0~~~~~~~~~~-8~~~~~~~~~~-10~~~~~~~~~-5~~~~-5-5-5-5---3---1---|
G-0~~~~~~~~~~-8~~~~~~~~~~-10~~~~~~~~~-5~~~~-5-5-5-5---3---1---|
C-0~~~~~~~~~~-8~~~~~~~~~~-10~~~~~~~~~-5~~~~-5-5-5-5---3---1---|
pm                                          . . .

Guitar 2
D-------5~~~~~~~~~~-------------3~~~~-------------------------|
A-------------------6~~~~-------------------------------------|
F-7~~~~~~~~~~-7~~~~~~~~~~-5~~~~~~~~~~-5~~~~~~~~~~-7---5---7---|
C-------------------------------------------------------------|
G-------------------------------------------------------------|
C-------------------------------------------------------------|

==============================================================

Guitar 1
D-------------------------------------------------------------|
A-------------------------------------------------------------|
F-------------------------------------------------------------|
C-0~~~~~~~~~~-8~~~~~~~~~~-10~~~~~~~~~-5~~~~-5-5-5-5---3---8---|
G-0~~~~~~~~~~-8~~~~~~~~~~-10~~~~~~~~~-5~~~~-5-5-5-5---3---8---|
C-0~~~~~~~~~~-8~~~~~~~~~~-10~~~~~~~~~-5~~~~-5-5-5-5---3---8---|
pm                                          . . .

Guitar 2
D-------5~~~~~~~~~~-------------3~~~~-------------------------|
A-------------------6~~~~-------------------------------------|
F-7~~~~~~~~~~-7~~~~~~~~~~-5~~~~~~~~~~-5~~~~~~~~~~-7---5---7---|
C-------------------------------------------------------------|
G-------------------------------------------------------------|
C-------------------------------------------------------------|

==============================================================
==============================================================


Bridge 2

Guitar 1
D-------------------------------------------------|
A-------------------------------------------------|
F-------------------------------------------------|
C-------------------------------------------------|
G-------------------------------------------------|
C-0---0-0-0---0---0---0---3---3-3-3---3---3---3---|
pm.   . . .   .   .   .   .   . . .   .   .   .

Guitar 2
D-------------------------------------------------|
A-------------------------------------------------|
F-7~~~~~~~~~~~~~~~~~~~~~~~~~~~~~~~~~~~~~~~~~~~~~~-
C-------------------------------------------------|
G-------------------------------------------------|
C-------------------------------------------------|

==============================================================

Guitar 1
D-------------------------------------------------|
A-------------------------------------------------|
F-------------------------------------------------|
C-------------------------6~~~~~~-5~~~~~~-3~~~~~~-|
G-------------------------6~~~~~~-5~~~~~~-3~~~~~~-|
C-5---5-5-5---5---5---5---6~~~~~~-5~~~~~~-3~~~~~~-|
pm.   . . .   .   .   .

==============================================================

Guitar 1 & 2
D-------------------------------------------------|
A-------------------------------------------------|
F-------------------------------------------------|
C-------------------------------------------------|
G-------------------------------------------------|
C-0---0-0-0---0---0---0---3---3-3-3---3---3---3---|
pm.   . . .   .   .   .   .   . . .   .   .   .

==============================================================

Guitar 1 & 2
D-------------------------------------------------|
A-------------------------------------------------|
F-------------------------------------------------|
C-------------------------6~~~~~~-5~~~~~~-3~~~~~~-|
G-------------------------6~~~~~~-5~~~~~~-3~~~~~~-|
C-5---5-5-5---5---5---5---6~~~~~~-5~~~~~~-3~~~~~~-|

==============================================================
==============================================================


Interlude

Guitar 1
D-------------------------------------------------|
A-------------------------------------------------|
F-------------------------------------------------|
C-------------------------------------------------|
G-----5~~~~~~~~~~-3~~~~~~~~~~-3~~~~~~-------------|
C-0~~~~~~-0~~-3~~~~~~-3~~-5~~~~~~-5~~-5b~-5~~-3~~-|

Guitar 2
D-------------------------------------------------|
A-------------------------------------------------|
F-------------------------------------------------|
C-0~~-0~~-0~~-3~~-3~~-3~~-5~~-5~~-5~~-5b~-5~~-3~~-|
G-0~~-0~~-0~~-3~~-3~~-3~~-5~~-5~~-5~~-5b~-5~~-3~~-|
C-0~~-0~~-0~~-3~~-3~~-3~~-5~~-5~~-5~~-5b~-5~~-3~~-|


==============================================================

Guitar 1
D-------------------------------------------------|
A-------------------------------------------------|
F-------------------------------------------------|
C-------------------------------------------------|
G-----5~~~~~~~~~~-3~~~~~~~~~~-3~~~~~~-------------|
C-0~~~~~~-0~~-3~~~~~~-3~~-5~~~~~~-5~~-5b~-5~~-3~~-|

Guitar 2
D-------------------------------------------------|
A-------------------------------------------------|
F-------------------------------------------------|
C-0~~-0~~-0~~-3~~-3~~-3~~-5~~-5~~-5~~-5b~-5~~-3~~-|
G-0~~-0~~-0~~-3~~-3~~-3~~-5~~-5~~-5~~-5b~-5~~-3~~-|
C-0~~-0~~-0~~-3~~-3~~-3~~-5~~-5~~-5~~-5b~-5~~-3~~-|


==============================================================

Guitar 1
D-------------------------------------------------|
A-------------------------------------------------|
F-------------------------------------------------|
C-----3~~~~~~~~~~-2~~~~~~~~~~-2~~~~~~-------------|
G-------------------------------------------------|
C-0~~~~~~-0~~-3~~~~~~-3~~-5~~~~~~-5~~-5b~-5~~-3~~-|

Guitar 2
D-------------------------------------------------|
A-------------------------------------------------|
F-------------------------------------------------|
C-0~~-0~~-0~~-3~~-3~~-3~~-5~~-5~~-5~~-5b~-5~~-3~~-|
G-0~~-0~~-0~~-3~~-3~~-3~~-5~~-5~~-5~~-5b~-5~~-3~~-|
C-0~~-0~~-0~~-3~~-3~~-3~~-5~~-5~~-5~~-5b~-5~~-3~~-|


==============================================================

Guitar 1
D-------------------------------------------------|
A-------------------------------------------------|
F-------------------------------------------------|
C-----3~~~~~~~~~~-2~~~~~~~~~~-2~~~~~~-------------|
G-------------------------------------------------|
C-0~~~~~~-0~~-3~~~~~~-3~~-5~~~~~~-5~~-5b~-5~~-3~~-|

Guitar 2
D-------------------------------------------------|
A-------------------------------------------------|
F-------------------------------------------------|
C-0~~-0~~-0~~-3~~-3~~-3~~-5~~-5~~-5~~-5b~-5~~-3~~-|
G-0~~-0~~-0~~-3~~-3~~-3~~-5~~-5~~-5~~-5b~-5~~-3~~-|
C-0~~-0~~-0~~-3~~-3~~-3~~-5~~-5~~-5~~-5b~-5~~-3~~-|


==============================================================
==============================================================


Bridge 3

Guitar 1 & 2
D-------------------------------------------------|
A-------------------------------------------------|
F-------------------------------------------------|
C-------------------------------------------------|
G-------------------------------------------------|
C-0---0-0-0---0---0---0---0---0-0-0---0---0---0---|
pm.   . . .   .   .   .   .   . . .   .   .   .

==============================================================

Guitar 1 & 2
D-------------------------------------------------|
A-------------------------------------------------|
F-------------------------------------------------|
C-0---0---0---0---0---0---0---0---0---0-----------|
G-0---0---0---0---0---0---0---0---0---0-----------|
C-0---0---0---0---0---0---0---0---0---0-----------|
pm.   .   .   .   .   .   .   .   .   .

==============================================================
==============================================================


Guitar Solo

Guitar 1
D-------------------------------------------------------------|
A-------------------------------------------------------------|
F-5---7---7---7~~~~~~-----5---7---7---7~~~~~~-----5---7---7---|
C-5---7---7---7~~~~~~-0---5---7---7---7~~~~~~-0---5---7---7---|
G-3---5---5---5~~~~~~-0---3---5---5---5~~~~~~-0---3---5---5---|
C---------------------0-----------------------0---------------|
pm                    .                       .

Guitar 2
D-------------------------------------------------------------|
A-15~~~~~~~~~~~~~~~-15~~~~~~~~~~~~~~~-------------10----------|
F-17~b~~~~~~~~~~r~~-17~b~~~~~~~~~~r~~-10--13--12--10----------|
C-----------------------------------------------------12--12--|
G-------------------------------------------------------------|
C-------------------------------------------------------------|
pm                                    .   .   .       .   .

==============================================================

Guitar 1
D-------------------------------------------------------------|
A-------------------------------------------------------------|
F-7~~~~~~-----------------------------------------------------|
C-7~~~~~~-0---0-0-0---0---3---5---0---8---0---0---6---6---6---|
G-5~~~~~~-0---0-0-0---0---3---5---0---8---0---0---6---6---6---|
C---------0---0-0-0---0---3---5---0---8---0---0---6---6---6---|
pm        .   . . .   .           .       .   .

Guitar 2
D-------------------------------------------------------------|
A-12------12--10~~~~~~~~~~~~~~~~~~~~~~~~~~~~~~~~~~~~~~~~~~~~~-|
F-12------12--10~~~~~~~~~~~~~~~~~~~~~~~~~~~~~~~~~~~~~~~~~~~~~-|
C-----12------------------------------------------------------|
G-------------------------------------------------------------|
C-------------------------------------------------------------|
pm    .

==============================================================

Guitar 1
D-------------------------------------------------------------|
A-------------------------------------------------------------|
F-5---7---7---7~~~~~~-----5---7---7---7~~~~~~-----5---7---7---|
C-5---7---7---7~~~~~~-0---5---7---7---7~~~~~~-0---5---7---7---|
G-3---5---5---5~~~~~~-0---3---5---5---5~~~~~~-0---3---5---5---|
C---------------------0-----------------------0---------------|
pm                    .                       .

Guitar 2
D-13----------------------13------------------15--13--17--15--|
A-----17--15--14--15--17------17-15-14-15-17------------------|
F-------------------------------------------------------------|
C-------------------------------------------------------------|
G-------------------------------------------------------------|
C-------------------------------------------------------------|

==============================================================

Guitar 1
D-------------------------------------------------------------|
A-------------------------------------------------------------|
F-7~~~~~~-----------------------------------------------------|
C-7~~~~~~-0---0-0-0---0---3---5---0---8---0---0---1---1---1---|
G-5~~~~~~-0---0-0-0---0---3---5---0---8---0---0---1---1---1---|
C---------0---0-0-0---0---3---5---0---8---0---0---1---1---1---|
pm        .   . . .   .           .       .   .

Guitar 2
D-13--12--17~~~~~~~~~~~~~~~~~~~~~~~~~~~~~~~~~~~~~~~~~---------|
A-------------------------------------------------------------|
F-------------------------------------------------------------|
C---------------------------------------------------------10--|
G-------------------------------------------------------------|
C-------------------------------------------------------------|

==============================================================

Guitar 1
D-------------------------------------------------------------|
A-------------------------------------------------------------|
F-5---7---7---7~~~~~~-----5---7---7---7~~~~~~-----5---7---7---|
C-5---7---7---7~~~~~~-0---5---7---7---7~~~~~~-0---5---7---7---|
G-3---5---5---5~~~~~~-0---3---5---5---5~~~~~~-0---3---5---5---|
C---------------------0-----------------------0---------------|
pm                    .                       .

Guitar 2
D-------------------------------------------------------------|
A-------------------------------------------------------------|
F---------------------9~~~~~~~~~~-9~~~~~~~~~~-12--10------10--|
C-12~~~~~-10--12~~~~~-12~~~~~~~~~---------------------12------|
G-------------------------------------------------------------|
C-------------------------------------------------------------|

==============================================================

Guitar 1
D-------------------------------------------------------------|
A-------------------------------------------------------------|
F-7~~~~~~-----------------------------------------------------|
C-7~~~~~~-0---0-0-0---0---3---5---0---8---0---0---6---6---6---|
G-5~~~~~~-0---0-0-0---0---3---5---0---8---0---0---6---6---6---|
C---------0---0-0-0---0---3---5---0---8---0---0---6---6---6---|
pm        .   . . .   .           .       .   .

Guitar 2
D--------------------------------------------------------------|
A--------------------------------------------------------------|
F-7------------------------------------------------------------|
C-----10--12--10------10--7-------7~~~~~~-5*~~~~~--------------|
G-----------------12----------10------------------8*~~~~~-5*~~-|
C--------------------------------------------------------------|

==============================================================

Guitar 1
D-------------------------------------------------------------|
A-------------------------------------------------------------|
F-5---7---7---7~~~~~~-----5---7---7---7~~~~~~-----5---7---7---|
C-5---7---7---7~~~~~~-0---5---7---7---7~~~~~~-0---5---7---7---|
G-3---5---5---5~~~~~~-0---3---5---5---5~~~~~~-0---3---5---5---|
C---------------------0-----------------------0---------------|
pm                    .                       .

Guitar 2
D-------------------------16*b~~~~~~~~~~~~~~~~----------------|
A-------------------------------------------------------------|
F-------------------------------------------------------------|
C-------------------------------------------------------------|
G-~~~~~~~~~~~~~~~~~~~~~~~-------------------------------------|
C-------------------------------------------------------------|

==============================================================

Guitar 1
D-------------------------------------------------------------|
A-------------------------------------------------------------|
F-7~~~~~~-----------------------------------------------------|
C-7~~~~~~-0---0-0-0---0---3---5---0---8---0---0---1---1---1---|
G-5~~~~~~-0---0-0-0---0---3---5---0---8---0---0---1---1---1---|
C---------0---0-0-0---0---3---5---0---8---0---0---1---1---1---|
pm        .   . . .   .           .       .   .

Guitar 2
D----------------------------------------------------15~~-17-18-20-|
A-------------------------15-18-15---------------------------------|
F-13-12----------------------------17-14-17--14--17----------------|
C-------15-12-15--12--15-------------------------------------------|
G------------------------------------------------------------------|
C------------------------------------------------------------------|

==============================================================
==============================================================


Interlude 2

Guitar 1
D-------------------------------------------------------------|
A-------------------------------------------------------------|
F-------------------------------------------------------------|
C-1-0-0-0-0-0-0-0-0-0-0-0-0-0-0-0-0-0-0-0-0-0-0-0-3-5-0-6-6-6-|
G-1-0-0-0-0-0-0-0-0-0-0-0-0-0-0-0-0-0-0-0-0-0-0-0-3-5-0-6-6-6-|
C-1-0-0-0-0-0-0-0-0-0-0-0-0-0-0-0-0-0-0-0-0-0-0-0-3-5-0-6-6-6-|
pm    . . . . . . . . . . . . . . . . . . . . . .     .

Guitar 2
D-20b~~~~~~~~~~~~~~~~~~~~~~~~~~~~~~~~~~~~~~~~~~~~~~~~~~~~~~~~-
A-------------------------------------------------------------|
F-------------------------------------------------------------|
C-------------------------------------------------------------|
G-------------------------------------------------------------|
C-------------------------------------------------------------|

==============================================================

Guitar 1
D-------------------------------------------------------------|
A-------------------------------------------------------------|
F-------------------------------------------------------------|
C-1-0-0-0-0-0-0-0-0-0-0-0-0-0-0-0-0-0-0-0-0-0-0-0-3-5-0-1-1-1-|
G-1-0-0-0-0-0-0-0-0-0-0-0-0-0-0-0-0-0-0-0-0-0-0-0-3-5-0-1-1-1-|
C-1-0-0-0-0-0-0-0-0-0-0-0-0-0-0-0-0-0-0-0-0-0-0-0-3-5-0-1-1-1-|
pm    . . . . . . . . . . . . . . . . . . . . . .     .

Guitar 2
D-------------------------------------------------------------|
A-------------------------------------------------------------|
F-7-7-7-7-7-7-7-7-7-7-7-7-7-7-7-7-7-7-7-7-7-7-7-7-7-7-7-7-7-7-|
C-x-x-x-x-x-x-x-x-x-x-x-x-x-x-x-x-x-x-x-x-x-x-x-x-x-x-x-x-x-x-|
G-5-5-5-5-5-5-5-5-5-5-5-5-5-5-5-5-5-5-5-5-5-5-5-5-5-5-5-5-5-5-|
C-------------------------------------------------------------|

==============================================================

Guitar 1
D-------------------------------------------------------------|
A-------------------------------------------------------------|
F-------------------------------------------------------------|
C-1-0-0-0-0-0-0-0-0-0-0-0-0-0-0-0-0-0-0-0-0-0-0-0-3-5-0-6-6-6-|
G-1-0-0-0-0-0-0-0-0-0-0-0-0-0-0-0-0-0-0-0-0-0-0-0-3-5-0-6-6-6-|
C-1-0-0-0-0-0-0-0-0-0-0-0-0-0-0-0-0-0-0-0-0-0-0-0-3-5-0-6-6-6-|
pm    . . . . . . . . . . . . . . . . . . . . . .     .

Guitar 2
D-------------------------------------------------------------|
A-10-10-10-10-10-10-10-10-10-10-10-10-10-10-10-10-10-10-10-10-|
F-x--x--x--x--x--x--x--x--x--x--x--x--x--x--x--x--x--x--x--x--|
C-7--7--7--7--7--7--7--7--7--7--7--7--7--7--7--7--7--7--7--7--|
G-------------------------------------------------------------|
C-------------------------------------------------------------|

==============================================================

Guitar 1
D-------------------------------------------------------------|
A-------------------------------------------------------------|
F-------------------------------------------------------------|
C-1-0-0-0-0-0-0-0-0-0-0-0-0-0-0-0--ps\~~~~~~~~~~~~~~~~~~~~~~~-|
G-1-0-0-0-0-0-0-0-0-0-0-0-0-0-0-0--ps\~~~~~~~~~~~~~~~~~~~~~~~-|
C-1-0-0-0-0-0-0-0-0-0-0-0-0-0-0-0--ps\~~~~~~~~~~~~~~~~~~~~~~~-|
pm    . . . . . . . . . . . . . .

Guitar 2
D-------------------------------------------------------------|
A-15-15-15-15-15-15-15-15-15-15-15-ps\~~~~~~~~~~~~~~~~~~~~~~~-|
F-x--x--x--x--x--x--x--x--x--x--x--ps\~~~~~~~~~~~~~~~~~~~~~~~-|
C-12-12-12-12-12-12-12-12-12-12-12-ps\~~~~~~~~~~~~~~~~~~~~~~~-|
G-------------------------------------------------------------|
C-------------------------------------------------------------|

==============================================================
==============================================================


Chorus 2

(x2)

Guitar 1
D-------------------------------------------------------------|
A-------------------------------------------------------------|
F-------------------------------------------------------------|
C-0~~~~~~~~~~-8~~~~~~~~~~-10~~~~~~~~~-5~~~~-5-5-5-5---3---1---|
G-0~~~~~~~~~~-8~~~~~~~~~~-10~~~~~~~~~-5~~~~-5-5-5-5---3---1---|
C-0~~~~~~~~~~-8~~~~~~~~~~-10~~~~~~~~~-5~~~~-5-5-5-5---3---1---|
pm                                          . . .

Guitar 2
D-------5~~~~~~~~~~-------------3~~~~-------------------------|
A-------------------6~~~~-------------------------------------|
F-7~~~~~~~~~~-7~~~~~~~~~~-5~~~~~~~~~~-5~~~~~~~~~~-7---5---7---|
C-------------------------------------------------------------|
G-------------------------------------------------------------|
C-------------------------------------------------------------|

==============================================================

Guitar 1
D-------------------------------------------------------------|
A-------------------------------------------------------------|
F-------------------------------------------------------------|
C-0~~~~~~~~~~-8~~~~~~~~~~-10~~~~~~~~~-5~~~~-5-5-5-5---3---8---|
G-0~~~~~~~~~~-8~~~~~~~~~~-10~~~~~~~~~-5~~~~-5-5-5-5---3---8---|
C-0~~~~~~~~~~-8~~~~~~~~~~-10~~~~~~~~~-5~~~~-5-5-5-5---3---8---|
pm                                          . . .

Guitar 2
D-------5~~~~~~~~~~-------------3~~~~-------------------------|
A-------------------6~~~~-------------------------------------|
F-7~~~~~~~~~~-7~~~~~~~~~~-5~~~~~~~~~~-5~~~~~~~~~~-7---5---7---|
C-------------------------------------------------------------|
G-------------------------------------------------------------|
C-------------------------------------------------------------|

==============================================================
==============================================================


Bridge 1

Guitar 1
D-------------------------------------------------|
A-------------------------------------------------|
F-------------------------------------------------|
C-------------------------------------------------|
G-------------------------------------------------|
C-0---0-0-0---0---0---0---0---0-0-0---0---0---0---|
pm.   . . .   .   .   .   .   . . .   .   .   .

Guitar 2
D-------------------------------------------------|
A-------------------------------------------------|
F-7~~~~~~~~~~~~~~~~~~~~~~~~~~~~~~~~~~~~~~~~~~~~~~-
C-------------------------------------------------|
G-------------------------------------------------|
C-------------------------------------------------|

==============================================================
==============================================================


Outro

Guitar 1 & 2
D-------------------------------------------------------------|
A-------------------------------------------------------------|
F-5---7---7---7~~~~~~-----5---7---7---7~~~~~~-----5---7---7---|
C-5---7---7---7~~~~~~-0---5---7---7---7~~~~~~-0---5---7---7---|
G-3---5---5---5~~~~~~-0---3---5---5---5~~~~~~-0---3---5---5---|
C---------------------0-----------------------0---------------|
pm                    .                       .

==============================================================

Guitar 1 & 2
D-------------------------------------------------------------|
A-------------------------------------------------------------|
F-7~~~~~~-----------------------------------------------------|
C-7~~~~~~-0---0-0-0---0---3---5---0---8---0---0---6~~~\~~~~~~-|
G-5~~~~~~-0---0-0-0---0---3---5---0---8---0---0---6~~~\~~~~~~-|
C---------0---0-0-0---0---3---5---0---8---0---0---6~~~\~~~~~~-|
pm        .   . . .   .           .       .   .

==============================================================
==============================================================
==============================================================


Tab Legend
h  -  hammer-on
p  -  pull-off
/  -  slide up
\  -  slide down
ps/-  pickslide up
ps\-  pickslide down
~  -  let ring
pm.-  palm mute
b  -  bend
r  -  return from bend
*  -  harmonic
x  -  dead note
^  -  Whammy bar
^\ -  Whammy bar (hold down)


That is it! I hope this tab has helped you master this song and if you’ve got any
problems, be sure to check out my cover. Thanks, oh and one last thing... ROCK OUT!!!!
comments
We did not receive enough feedback on this tab! Please rate:
print report bad tab
1 2 3 4 5
I want to post or [tab]
guest
You may want to rate the tab now too:
select rating
Please do not post tabs as comments. Select "correction" instead!