Oops, an error
Loading. Please wait.

Redemption Tab

ver2
ver2

Intro

Solo

Whole song

Interactive

More versions @911Tabs.com
15,132 views 6 this week
no commentswrite comment
1 2 3 4 5
excellent!
x 9
Autoscroll
+/-
esc
set tempo
stop
Contributor
Hey! There's an official Ultimate Guitar app which is ideal
for learning songs when you're away from computer. Get the app
WARNING: You are trying to view
                                    content from Ultimate-Guitar.com
                                    in an unauthorized application,
                                    which is prohibited.

                                    Please use an official Ultimate
                                    Guitar Tabs application for iPhone,
                                    iPad or Android to access legitimate
                                    chords, guitar, bass, and drum tabs
                                    from Ultimate-Guitar.com database.

                                    Type "ultimate guitar tabs" in Apple
                                    App Store's or Android Market's
                                    search to find the application.
-------------------------------------------------------------------------------
                             Redmption - Shadows Fall
-------------------------------------------------------------------------------
Tabbed by: Somebody Some1
Email: antihero-777@hotmail.com

Tuning:Drop D Dadgbe (low to high)

This my first tab. Feel free to email me any problems or point out any mistakes. Listen 
timing in the solo. Which is sweep picked.

| /  slide up
| \  slide down
| h  hammer-on
| p  pull-off
| ~  vibrato
| ph pinch harmonic/squeal
| .  palm mute
| nh natural harmonic
| bu bend up to note in ()
| bd bend down to note in ()
| pb pre bend to note in () then play

Time signature 4/4

Intro

  [            x2                ] [             x4               ]
e|---------------|----------------|---------------|----------------|
B|---------------|----------------|---------------|----------------|
G|---------------|----------------|---------------|----------------|
D|-3-------------|----------------|--5-3---2-----5|-3---2----------|
A|-1----0--------|----------------|----------3----|------3-000-3-5-|
D|----0-0--0-0000|-0-0-00000-0-000|0-----0-----0--|---0------------|
      .    . ....  . . ..... . ... .     .     .      .    ...
      pm
e|--------------|----------------|-------------|------------------|
B|--------------|----------------|-------------|------------------|
G|--------------|----------------|-------------|------------------|
D|3-------------|-----------7-5--|-3-----------|------------------|
A|1-------------|----------------|-1----0------|----------3--1/---|
D|---0-0--0-0000|-0-0-00000-----0|----0-0--000-|-000--000-3--1/---|
     . .  . ....  . . .....     .     .    ...   ...  ...


Verse

  [                      x2                         ] [ 1st time only]
e|-----------------|----------------|----------------|---------------|
B|-----------------|----------------|----------------|---------------|
G|-----------------|----------------|----------------|---------------|
D|-----------------|----------------|----------------|---------------|
A|-5-----3---5-0-3-|-0----3-5-6-5-3-|-5---5-6--5-----|-------1-------|
D|---0-0---0-------|---3------------|---6--------6-5~|-0-3-5---3-5---|
     . .   .           .  . . . .                      . . . . .

  [ 2nd time    ]
e|--------------|
B|--------------|
G|--------------|
D|--------------|
A|--------------|
D|-5--00-3-0-5~-|
             *
             ph

Bridge

  [                                 x2                       ]
e|--------------------|-------------------|-------------------|
B|--------------------|-------------------|-------------------|
G|--------------------|-------------------|-------------------|
D|--------------------|-------------------|-------------------|
A|-5------3----5----3-|-----3----3----5---|-3------5----3-----|
D|---0000---00---00---|-000---00---00---3-|---3333---33---3355|
     ....   ..   ..     ...   ..   ..   .     ....   ..   ....

  [ 1st time ]          [2nd time]
e|-------------------|-----------------|
B|-------------------|-----------------|
G|-------------------|-----------------|
D|-------------------|-----------------|
A|-5------6----5-----|-5-----6-----8-0-|
D|---5555---55---000-|---555---888-----|
     ....   ..   ...     ...   ...   .

Pre-chorus

e|----------------|-----------------|----------------|-----------------|
B|----------------|-----------------|----------------|-----------------|
G|----------------|-----------------|----------------|-----------------|
D|-3--------------|-----------7-5---|-3--------------|-----------5-2---|
A|-1----0---------|-----------------|-1----0---------|-----------------|
D|----0-0--0-0000-|-0-0-00000-----0-|----0-0--0-0000-|-0-0-00000-----0-|
      .    . ....   . . .....     .      .    . ....   . . .....     .


e|----------------|-----------------|----------------|-----------------|
B|----------------|-----------------|----------------|-----------------|
G|----------------|-----------------|----------------|-----------------|
D|-3--------------|-----------7-5---|-3--------------|-5---------------|
A|-1----0---------|-----------------|-1--------------|-3----3-x-3-0----|
D|----0-0--0-0000-|-0-0-00000-----0-|----------------|------3-x-3-0----|
      .    . ....   . . .....     .

Chorus 1

  [                                             x2
e|---------------------|----------------------|--------------------|
B|---------------------|----------------------|--------------------|
G|---12-10---9------12-|-10---9---------------|--12-10---9------12-|
D|-------------10------|--------10----10-12---|------------10------|
A|-0-------0------0----|----0------12-------0-|--------0------0----|
D|-0-------------------|--------------------0-|--------------------|
           .      .         .                          .      .

e|----------------------|------------------|--------------------|
B|----------------------|------------------|--------------------|
G|-10---9---------------|-----10---9-10----|-----10---9-10------|
D|--------10----10-12---|--10-----------10-|--10-----------10---|
A|----0------12-------8-|------------------|------------------0-|
D|--------------------8-|--------8---------|--------8-----------|
      .                          .                  .         .

                                       ]
e|------------------|-------------------|
B|------------------|-------------------|
G|-----10---9-10----|-----10---9-7------|
D|--10-----------10-|--10----------10---|
A|--------0---------|--------0--------0-|
D|------------------|-----------------0-|
          .                  .

e|------------------|-----------------|------------------|-----------------|
B|------------------|-----------------|------------------|-----------------|
G|------------------|-----------------|------------------|-----------------|
D|------------------|-----------------|------------------|-----------------|
A|0~~~~~~~~~~~~~~~~~|~~~~~~~~~~~~~~~~~|~~~~~~~~~~~~~~~~~~|~~~~~~~~~~~~~~~~~|
D|0~~~~~~~~~~~~~~~~~|~~~~~~~~~~~~~~~~~|~~~~~~~~~~~~~~~~~~|~~~~~~~~~~~~~~~~~|

  [                 x2                 ]
e|--------------------|-----------------|
B|--------------------|-----------------|
G|--------------------|--------------5--|
D|------7------8----7-|------7-------5--|
A|------7------8----7-|------7----------|
D|-5555---5555---55---|-5555----3333----|
   ....   ....   ..     ....    ....

Verse

  [                      x2                         ] [ 1st time only]
e|-----------------|----------------|----------------|---------------|
B|-----------------|----------------|----------------|---------------|
G|-----------------|----------------|----------------|---------------|
D|-----------------|----------------|----------------|---------------|
A|-5-----3---5-0-3-|-0----3-5-6-5-3-|-5---5-6--5-----|-------1-------|
D|---0-0---0-------|---3------------|---6--------6-5~|-0-3-5---3-5---|
     . .   .           .  . . . .                      . . . . .

  [ 2nd time    ]
e|--------------|
B|--------------|
G|--------------|
D|--------------|
A|--------------|
D|-5--00-3-0-5~-|
             *
             ph

Bridge

  [                                 x2                       ]
e|--------------------|-------------------|-------------------|
B|--------------------|-------------------|-------------------|
G|--------------------|-------------------|-------------------|
D|--------------------|-------------------|-------------------|
A|-5------3----5----3-|-----3----3----5---|-3------5----3-----|
D|---0000---00---00---|-000---00---00---3-|---3333---33---3355|
     ....   ..   ..     ...   ..   ..   .     ....   ..   ....

  [ 1st time ]          [2nd time]
e|-------------------|-----------------|
B|-------------------|-----------------|
G|-------------------|-----------------|
D|-------------------|-----------------|
A|-5------6----5-----|-5-----6-----8-0-|
D|---5555---55---000-|---555---888-----|
     ....   ..   ...     ...   ...   .


Pre-chorus

e|----------------|-----------------|----------------|-----------------|
B|----------------|-----------------|----------------|-----------------|
G|----------------|-----------------|----------------|-----------------|
D|-3--------------|-----------7-5---|-3--------------|-----------5-2---|
A|-1----0---------|-----------------|-1----0---------|-----------------|
D|----0-0--0-0000-|-0-0-00000-----0-|----0-0--0-0000-|-0-0-00000-----0-|
      .    . ....   . . .....     .      .    . ....   . . .....     .


e|----------------|-----------------|----------------|-----------------|
B|----------------|-----------------|----------------|-----------------|
G|----------------|-----------------|----------------|-----------------|
D|-3--------------|-----------7-5---|-3--------------|-5---------------|
A|-1----0---------|-----------------|-1--------------|-3----3-x-3-0----|
D|----0-0--0-0000-|-0-0-00000-----0-|----------------|------3-x-3-0----|
      .    . ....   . . .....     .

Chorus 2

  [                                             x2
e|---------------------|----------------------|--------------------|
B|---------------------|----------------------|--------------------|
G|---12-10---9------12-|-10---9---------------|--12-10---9------12-|
D|-------------10------|--------10----10-12---|------------10------|
A|-0-------0------0----|----0------12-------0-|--------0------0----|
D|-0-------------------|--------------------0-|--------------------|
           .      .         .                          .      .

e|----------------------|------------------|--------------------|
B|----------------------|------------------|--------------------|
G|-10---9---------------|-----10---9-10----|-----10---9-10------|
D|--------10----10-12---|--10-----------10-|--10-----------10---|
A|----0------12-------8-|------------------|------------------0-|
D|--------------------8-|--------8---------|--------8-----------|
      .                          .                  .         .

                                       ]
e|------------------|-------------------|
B|------------------|-------------------|
G|-----10---9-10----|-----10---9-7------|
D|--10-----------10-|--10----------10---|
A|--------0---------|--------0--------0-|
D|------------------|-----------------0-|
          .                  .


e|-------------|-----------------|-------------|
B|-------------|-----------------|-------------|
G|-------------|-----------------|-------------|
D|-5--7--------|-----------------|-------------|
A|-3--5--6--5--|---------5-------|-------------|
D|-------6--5--|-0-3-0-3---6-0-3-|-6-3-0-3-x---|
                 . . . .     . .   . . . .

Interlude

  [                              x4                               ]
e|----------------|--------------|---------------|-----------------|-------|
B|----------------|--------------|---------------|-----------------|-------|
G|----------------|--------------|---------------|-----------------|-------|
D|----------------|--------5--7--|---------------|-----------------|-------|
A|----------------|--------3--5--|-6--5----------|-5---------------|--b----|
D|-0-8-7-0-7~-0-7-|-6-0-6--------|-6--5--0-3-0-3-|---6-0-3-5-3-0-3-|-3-4---|
                                         . . . .   . . . . . . .

Solo

e|-17p13-------------13-17/20-17-------------17-|
B|-------15-------15-------------18----17-18----|
G|----------14-16-------------------19----------|
D|----------------------------------------------|
A|----------------------------------------------|
D|----------------------------------------------|

e|-20-20-18p17-18p17----17------|-----13h17-----13h18------13h17p13/12|
B|-------------------20----20-18|---13--------13---------13-----------|
G|------------------------------|-14--------14--------14--------------|
D|------------------------------|-------------------------------------|
A|------------------------------|-------------------------------------|
D|------------------------------|-------------------------------------|

e|-----12p16h12-----12h16p12-----12-|-17p13---------13-17/20-17---------17-|
B|---12-----------12-----------12---|------15-----15-----------18--17-18---|
G|-13-----------13-----------13-----|--------14-16---------------19--------|
D|----------------------------------|--------------------------------------|
A|----------------------------------|--------------------------------------|
D|----------------------------------|--------------------------------------|

e|-20--18p17-18p17-----17---------|-----13h17-13-----13-18p13-----13p17h13\|
B|-----------------20------20--18-|---13-----------13-----------13---------|
G|--------------------------------|-14-----------14-----------14-----------|
D|--------------------------------|----------------------------------------|
A|--------------------------------|----------------------------------------|
D|--------------------------------|----------------------------------------|

e|-----12p16h12-----12p16h12-----12/--|--15--(17)~~~~~~--15--(17)-|
B|---12-----------12-----------12-----|----bu--------------bu-----|
G|-13-----------13-----------13------0|---------------------------|
D|------------------------------------|---------------------------|
A|------------------------------------|---------------------------|
D|------------------------------------|---------------------------|

e|---(17)--(16)--(17)--(16)--(17)~~~~-----15-|
B|-pb----bd----bu----bd----bu----------------|
G|-------------------------------------------|
D|-------------------------------------------|
A|-------------------------------------------|
D|-------------------------------------------|

e|----------------------------17h20-18p17---------------|
B|-------15-17-18/20-17-19-20-------------20---17-18-20-|
G|-15h17------------------------------------------------|
D|------------------------------------------------------|
A|------------------------------------------------------|
D|------------------------------------------------------|

e|---------------------------------------|---------------------------------|
B|-18-17-18-17----------------0--12--(14)|---(12)p10-----------------------|
G|-------------19-17-19~~~~---0----bu----|-bd------------------------------|
D|---------------------------------------|-----------12~~~~----------------|
A|---------------------------------------|---------------------------------|
D|---------------------------------------|---------------------------------|

e|---------------------------------------|
B|---------------------------------------|
G|---------------------------------------|
D|-----------------------12/-------------|
A|---------------------------------------|
D|---------------------------------------|

e|-10h13p10h13p10------10h13p10----10h13---13-15~~~--|-----------17---|
B|----------------13------------13-------------------|----------------|
G|---------------------------------------------------|---------0------|
D|---------------------------------------------------|----------------|
A|---------------------------------------------------|----------------|
D|---------------------------------------------------|----------------|

e|----15-------------17-|-----15-------------18-|--15-17-15----15----15-|
B|-18----18-17-18-15----|--18----18-17-18-15----|-----------18----17----|
G|----------------------|-----------------------|-----------------------|
D|----------------------|-----------------------|-----------------------|
A|----------------------|-----------------------|-----------------------|
D|----------------------|-----------------------|-----------------------|

e|--------------------|----------------------------------|-----------------|
B|-17-18-17-15-17-----|----------------------------------|-----------------|
G|----------------17\-|-------------------2h3h5p3p2--4/7-|-2-3-5p3p2p0-2~~~|
D|--------------------|-------2h3-5p2h3h5----------------|-------------*---|
A|--------------------|-1h3h5----------------------------|------------ph---|
D|--------------------|----------------------------------|-----------------|

e|------------------------10----------------------|
B|------8-9-11-8/10h11-13----13-11-10-13-11-10-13-|
G|-8h10-------------------------------------------|
D|------------------------------------------------|
A|------------------------------------------------|
D|------------------------------------------------|

e|-10-----------------------------------------|------------|---------------|
B|----13-11-10-13-11p10h11-15-18-15-13-15-18\-|------------|---------------|
G|--------------------------------------------|-17--(19)~~~|~~~~~~~~~~~~~~~|
D|--------------------------------------------|---bu-------|---------------|
A|--------------------------------------------|------------|---------------|
D|--------------------------------------------|------------|---------------|

Verse variation

e|--------------------|-------------------|--------------------|
B|--------------------|-------------------|--------------------|
G|--------------------|-------------------|--------------------|
D|--------------------|-------------------|--------------------|
A|-3------5----3------|-5------6----5-----|-5------3----5----3-|
D|---3333---33---3355-|---5555---55---000-|---0000---00---00---|
     ....   ..   ....     ....   ..   ...     ....   ..   ..

e|---------------------|-------------------|-------------------------------|
B|---------------------|-------------------|-------------------------------|
G|---------------------|-------------------|-------------------------------|
D|---------------------|-------------------|-------------------------------|
A|------3----3----5----|-3------5----3-----|-------------------------------|
D|-0000---00---00---33-|---0000---00---3355|5-5-5-5-5-5-5-5-6-6-6-6-6-6-6-6|
   ....   ..   ..   ..     ....   ..   ....

e|--------------|---------------|----------------|
B|--------------|---------------|----------------|
G|--------------|---------------|----------------|
D|-5--7---------|---------------|----------------|
A|-3--5--5--3-0~|~~~~~~~~~~~~~~~|~~~~~---3-x-3-0-|
D|-------5--3-0~|~~~~~~~~~~~~~~~|~~~~~---3-x-3-0-|

Chorus 3

  [                                             x2
e|---------------------|----------------------|--------------------|
B|---------------------|----------------------|--------------------|
G|---12-10---9------12-|-10---9---------------|--12-10---9------12-|
D|-------------10------|--------10----10-12---|------------10------|
A|-0-------0------0----|----0------12-------0-|--------0------0----|
D|-0-------------------|--------------------0-|--------------------|
           .      .         .                          .      .

e|----------------------|------------------|--------------------|
B|----------------------|------------------|--------------------|
G|-10---9---------------|-----10---9-10----|-----10---9-10------|
D|--------10----10-12---|--10-----------10-|--10-----------10---|
A|----0------12-------8-|------------------|------------------0-|
D|--------------------8-|--------8---------|--------8-----------|
      .                          .                  .         .

                                       ]
e|------------------|-------------------|
B|------------------|-------------------|
G|-----10---9-10----|-----10---9-7------|
D|--10-----------10-|--10----------10---|
A|--------0---------|--------0--------0-|
D|------------------|-----------------0-|
          .                  .

e|----------------|-----------------|----------------------------|
B|----------------|-----------------|----------------------------|
G|----------------|-----------------|----------------------------|
D|-3--------------|-----------------|-3--------------------------|
A|-1--------------|-----------------|-1-------------------3--1/--|
D|----0-0--0-0000-|-0-0-00000-0-000-|----0-0--000-000-000-3--1/--|
      .    . ....   . . ..... . ...      .    ... ... ...

e|----------------|-----------------|
B|----------------|-----------------|
G|----------------|-----------------|
D|-5--7-----------|-----------------|
A|-3--5--5--3-----|-----------------|
D|-------5--3--0~~|~~~~~~~~~~~X-----|


Thats it. anything you dont understand give me a shout.
 ===============================================================================
comments
print report bad tab
I want to post or [tab]
guest
You may want to rate the tab now too:
select rating
Please do not post tabs as comments. Select "correction" instead!