Oops, an error
Loading. Please wait.

Redemption Tab

ver4
ver4

Intro

Solo

Whole song

Interactive

More versions @911Tabs.com
3,952 views 3 this week
14 commentsread comments
1 2 3 4 5
accurate
x 9
add to favorites launch autoscroll
font size
0
reset
Autoscroll
+/-
esc
set tempo
stop
Contributor
Difficulty
Tuning
intermediate
D A D G B E
WARNING: You are trying to view
                                    content from Ultimate-Guitar.com
                                    in an unauthorized application,
                                    which is prohibited.

                                    Please use an official Ultimate
                                    Guitar Tabs application for iPhone,
                                    iPad or Android to access legitimate
                                    chords, guitar, bass, and drum tabs
                                    from Ultimate-Guitar.com database.

                                    Type "ultimate guitar tabs" in Apple
                                    App Store's or Android Market's
                                    search to find the application.
Shadows Fall
Redmeption

Off the new album "Threads of Life"

Alright guys, I've known how to play this song for like a month, I haven't touched on
solo yet, but I can give you the rest of the song. Go ahead and drop your guitar in drop D
lets go.

Intro
E--------------------------------------------|
B--------------------------------------------|
G--------------------------------------------|
D-3------------------------------------------| x2
A-1-0--0-------------------------------------|
D---0--0---0--0-0-0-0--0--0--0-0-0-0--0-0----|

E--------------------------------------------------|
B--------------------------------------------------|
G--------------------------------------------------|
D----5--3----3--------5--3----3--------------------| x4
A--------------2----------------2---0-0-0--3--5----|
D--0-------0-------0-------0-----------------------|

Then play the first into part again twice substituting the last 2 notes each time for these:

          1             2
E-----------------|---------------------------|
B-----------------|---------------------------|
G-----------------|---------------------------|
D--------7-5------|---------------------------|
A-----------------|----3----1-----------------|
D-----------------|----3----1-----------------|

Verse pt.1
E-------------------------------------------------------------------|
B-------------------------------------------------------------------|
G-------------------------------------------------------------------|
D-------------------------------------------------------------------|
A--5-----3----5-0-3-----3-5-6-5-3---5---5-6--5----------------------|
D----0-0---0----------0---------------6--------6-5--0-5-6-8-3-5-----|

E---------------------------------------------------------------------|
B---------------------------------------------------------------------|
G---------------------------------------------------------------------|
D---------------------------------------------------------------------|
A-5-----3----5-0-3-----3-5-6-5-3---5---5-6--5----------3--------------|
D---0-0----0---------0---------------6--------6-5--3-3-3---3-3-1-0-4*-|

Verse pt.2
E------------------------------------------------------------------|
B------------------------------------------------------------------|
G------------------------------------------------------------------|
D------------------------------------------------------------------|
A--5-------3---5---3-----3---3---5-------5---3-----------6---5-----|
D----0-0-0---0---0---0-0---0---0---3-3-3---3---3-3-5-5-5---5---5-5-|

E--------------------------------------------------------------------|
B--------------------------------------------------------------------|
G--------------------------------------------------------------------|
D--------------------------------------------------------------------|
A--5p3-------3---5---3-----3---3---5-------5---3-----------6---8-----|
D------0-0-0---0---0---0-0---0---0---3-3-3---3---3-3-5-5-5---5-------|

E-------------------------------------------|
B-------------------------------------------|
G-------------------------------------------|
D-3----------------------------------7-5----|
A-1-0--0------------------------------------|
D---0--0---0--0-0-0-0--0--0--0-0-0-0--------|

E--------------------------------------------|
B--------------------------------------------|
G--------------------------------------------|
D-3-----------------------------------5--2---| x2
A-1-0--0-------------------------------------|
D---0--0---0--0-0-0-0--0--0--0-0-0-0---------|

Seizeeeee the dayyyyyy
E--------------------------------------------|
B--------------------------------------------|
G--------------------------------------------|
D-3---------5-----------3-----1--------------|
A-1---------3-----------3-----1--------------|
D-----------------------3-----1--------------|

Chorus(play this twice):
Rhythm: D5
E--------------------------------------------|
B--------------------------------------------|
G---12-10---9-------12-10---9----------------|
D-0-------0---10--0-------0---10---10-12-----| x2
A--------------------------------12----------|
D--------------------------------------------|

Rhythm: Bb5                            A5
E------------------------------------------------------------------------------|
B------------------------------------------------------------------------------|
G------10----9-10---------10----9-10----------10----9-10---------10----9-7-----|
D---10----10------10---10----10------10----10----10------10---10----10-----10--|
A--8-----------------8-------------------0------------------0------------------|
D--8-----------------8---------------------------------------------------------|

E--------------------------------------------|
B--------------------------------------------|
G--------------------------------------------|
D-0------------------------------------------|
A-0------------------------------------------|
D-0------------------------------------------|

E----------------------------------------------|
B----------------------------------------------|
G----------------------------------------5-----|
D---------7-----8---7---------7----------5-----| x3
A---------7-----8---7---------7----------------|
D-5-5-5-5---5-5---5---5-5-5-5----3-3-3-3-------|

Back to verse... go through all that again...

Chorus... etc....

Bridge:
E--------------------------------------------|
B--------------------------------------------|
G--------------------------------------------|
D-5-7----------------------------------------|
A-3-5-6-5---------5--------------------------|
D-----6-5-0-3-0-3---6--0-3-5-3-0-3-----------|

E--------------------------------------------|
B--------------------------------------------|
G--------------------------------------------|
D--------------------------------------------|
A--------------------------------------------|
D-0-8-7-0-7--0-8-6-0-6-----------------------|
                                             |x4
E--------------------------------------------|
B--------------------------------------------|
G--------------------------------------------|
D-5-7----------------------------------------|
A-3-5-6-5---------5--------------------------|
D-----6-5-0-3-0-3---6--0-3-5-3-0-3-----------|

Solo:

E-15p13----------13-20p17----------17-20-18-17-18-17----17----------------|
B-------15----15----------18----18-------------------20----20-18----------|
G----------14----------------19-------------------------------------------|
D-------------------------------------------------------------------------|
A-------------------------------------------------------------------------|
D-------------------------------------------------------------------------|
                                                                          |
E--------13-17p13----------13-17p13----------13-17p13---------------------|
B-----13----------13----13----------13----13----------13------------------|
G--14----------------14----------------14----------------14---------------| x2
D-------------------------------------------------------------------------|
A-------------------------------------------------------------------------|
D-------------------------------------------------------------------------|
                                                                          |
E-------12-16p12----------12-16p12----------12-16p12----------------------|
B----12----------12----12----------12----12----------12-------------------|
G-13----------------13----------------13----------------13----------------|
D-------------------------------------------------------------------------|
A-------------------------------------------------------------------------|
D-------------------------------------------------------------------------|

E-15b--15b--15-15b--15-15b-15-15b-----------15-17-18-20-18-17-------------------|
B----------------------------------15-17-18-------------------20-18-17----------|
G----------------------------------------------------------------------19-17-19-|
D-------------------------------------------------------------------------------|
A-------------------------------------------------------------------------------|
D-------------------------------------------------------------------------------|

E--------------------10-13-10----10-13-10----10-13-10----15~--------------------|
B-----------------13----------13----------13----------13------------------------|
G-12b---10----------------------------------------------------------------------|
D----------12~------------------------------------------------------------------|
A-------------------------------------------------------------------------------|
D-------------------------------------------------------------------------------|

E-17-----15--------------17-----15-------------18--15-17-15----15---------------------------|
B-----18----18-17-18-15------18----18-17-18-15--------------18----17-18--15-17-15-----------|
G---------------------------------------------------------------------------------15-17-15\-|
D-------------------------------------------------------------------------------------------|
A-------------------------------------------------------------------------------------------|
D-------------------------------------------------------------------------------------------|

E----------------------------------------------------------------------|
B----------------------------------------------------------------------|
G-------------------2-3-5-3-2-----------7~--------2-3-5-3-2---2*-------|
D-------2-3-5-2-3-5-----------2-3-5/7-5-----2-3-5-----------3----------|
A-1-3-5----------------------------------------------------------------|
D----------------------------------------------------------------------|

E-----------------10---------------10----------------13-------------------------|
B------8-10-11-13---13-11-10-11-13----13-11-10-11-13----17-15-13-15-17-15~------|
G-8-10--------------------------------------------------------------------------|
D-------------------------------------------------------------------------------|
A-------------------------------------------------------------------------------|
D-------------------------------------------------------------------------------|


As for the end, just go through verse pt.2 and then head into the chorus. Thats it guys.
questions, you can reach me on AIM at JeffxReigns.
comments
print report bad tab
14 comments total. Showing first comments.
+1 reply
FacEraser117 wrote on July 10 2007, 11:35 am

Great Job!!!!

Your the first one to tab the solo the correct way!!!!

+2 reply
dillonnnnn wrote on July 23 2007, 11:37 pm

ATTENTION TO EVERY PERSON THAT IS GOING TO TAB A SHADOWS FALL SONG: THE GUITAR PLAYERS OF SHADOWS FALL ARE IN STANDARD TUNING, ONE STEP DOWN. GOING TOP FROM THE LOW E STRING [BOTTOM] TO THE HIGH E STRING [TOP], THE STRING NAMES ARE AS FOLLOWED: D, G, C, F, A, D.

If you translate it to that tuning, then it will be perfect.

0 reply
dillonnnnn wrote on July 24 2007, 12:03 am

Addition to my previous comment: If you listen to some shadows fall songs and you're not sure, just pluck an open dropped C string throughout the whole song. If you don't hear that very pitch being matched, then it's in the dgcfad tuning. And another hint to figure out the tuning is to listen to how fast the riffs are that appear to be on the first two or three strings and then that should give you a hint.

I want to post or [tab]
guest
You may want to rate the tab now too:
select rating
Please do not post tabs as comments. Select "correction" instead!