Oops, an error
Loading. Please wait.

Still I Rise Tab

ver1
ver1

Whole song

More versions @911Tabs.com
15,279 views 18 this week
4 commentsread comments
1 2 3 4 5
excellent!
x 7
Autoscroll
+/-
esc
set tempo
stop
Contributor
WARNING: You are trying to view
                                    content from Ultimate-Guitar.com
                                    in an unauthorized application,
                                    which is prohibited.

                                    Please use an official Ultimate
                                    Guitar Tabs application for iPhone,
                                    iPad or Android to access legitimate
                                    chords, guitar, bass, and drum tabs
                                    from Ultimate-Guitar.com database.

                                    Type "ultimate guitar tabs" in Apple
                                    App Store's or Android Market's
                                    search to find the application.
-------------------------------------------------------------------------------
		         Still I Rise – Shadows Fall
-------------------------------------------------------------------------------
Tabbed by: BFMV_rocks
Email: Jkrocks010@hotmail.co.uk

Tuning: Drop C (CGCFAD)
Q=150

Intro

Riff 1
Gtrs I & II
D|----------------|----------------|-----------------|----------------------|
A|----------------|----------------|-----------------|----------------------|
F|----------------|----------------|-----------------|----------------------|
C|----------------|----------------|-----------------|----------------------|
G|0000-0000000-000|0000-00000001111|-0000-0000000-000|0000-00000005\--------|
C|0000-0000000-000|0000-00000001111|-0000-0000000-000|0000-00000005\--------|X2

	
Riff 2
Gtrs I & II
D|----------------|----------------|-----------------|----------------------|
A|----------------|----------------|-----------------|----------------------|
F|----------------|----------------|-----------------|----------------------|
C|----------------|----------------|-----------------|----------------------|
G|0000-0000000-000|0000-00000001111|-0000-0000000-000|0000-00000005\--------|
C|0000-0000000-000|0000-00000001111|-0000-0000000-000|0000-00000005\--------|X2

Gtr III
D|----------------|----------------|----------------|-----------------------|
A|----------------|----------------|----------------|-----------------------|
F|----------------|----------------|----------------|-----------------------|
C|--575---575---57|--575---575---57|--575---575---57|--575---575---57-------|
G|58---858---858--|58---858---858--|58---858---858--|58---858---858---------|
C|----------------|----------------|----------------|-----------------------|X2


Riff 3
Gtrs I & II
D|----------------|----------------|----------------|-----------------------|
A|----------------|----------------|----------------|-----------------------|
F|----------------|----------------|----------------|-----------------------|
C|----------------|----------------|----------------|-----------------------|
G|0000000000000000|0000000000001111|3333333333333333|333333335\-------------|
C|0000000000000000|0000000000001111|3333333333333333|333333335\-------------|X2

Gtr III                                                      1.2.3.  4.
D|--------------------------------|------------------------|--------|-------|
A|--------------------------------|------------------------|--------|-------|
F|----121412------121512------1217|----121412------121512--|----1214|14\----|
C|1215------151215------151215----|1215------151215------15|1215----|-------|
G|--------------------------------|------------------------|--------|-------|
C|--------------------------------|------------------------|--------|-------|X4

Gtr IV
D|--------------------------------|------------------------|--------|-------|
A|--------------------------------|------------------------|--------|-------|
F|--------------------------------|------------------------|--------|-------|
C|----141514------141714------1419|----141514------141714--|----1415|15\----|
G|1317------171317------171317----|1317------171317------17|1317----|-------|
C|--------------------------------|------------------------|--------|-------|X4


Gtrs I & II
D|----------------|----------------|-----------------|----------------------|
A|----------------|----------------|-----------------|----------------------|
F|----------------|----------------|-----------------|----------------------|
C|----------------|----------------|-----------------|---------------7------|
G|0000-0000000-000|0000-00000001111|-0000-0000000-000|0000-000-5-3-0-5------|
C|0000-0000000-000|0000-00000001111|-0000-0000000-000|0000-000-5-3-0--------|

Verse

Gtrs I & II	
D|-----------------|-----------------|------------------|-------------------|
A|-----------------|-----------------|------------------|-------------------|
F|-----------------|-----------------|------------------|-------------------|
C|(7)--------------|----------------5|(5)---------------|---------------7---|
G|(5)-0-0-0-000-0-1|(1)-0-0-0-000-0-3|(3)-0-0-0-000-0---|---------------5---|
C|----0-0-0-000-0-1|(1)-0-0-0-000-0--|----0-0-0-000-0-00|333366665555-0-----|


D|-----------------|-----------------|------------------|-------------------|
A|-----------------|-----------------|------------------|-------------------|
F|-----------------|-----------------|------5---5-------|-------------------|
C|(7)-------------1|(1)-------------5|(5)-5---5---5-----|---------------7---|
G|(5)-0-0-0-000-0-1|(1)-0-0-0-000-0-3|(3)-----------3---|---------------5---|
C|----0-0-0-000-0--|----0-0-0-000-0--|----------------00|333366665555-0-----|


Gtrs I & II
D|----------------|----------------|----------------|-----------------------|
A|---------6------|--------6-------|---------3------|---------3-------------|
F|--------7--7----|------7---7-----|--------0--0----|--------0--0-----------|
C|(7)---7------7--|----7--------7--|------2------2--|------2------2-7-------|
G|(5)-5----------5|(5)------------3|(3)-3----------3|(3)-3----------5-------|
C|----------------|----------------|----------------|-----------------------|

Gtr III
D|------------------|---------------------|-------------------|-------------|
A|/13--(13)-11-13/15|(15)--(15)-11-10-8/11|(11)--(11)-10-11/13|(13)--/10--8-|
F|------------------|---------------------|-------------------|-------------|
C|------------------|---------------------|-------------------|-------------|
G|------------------|---------------------|-------------------|-------------|
C|------------------|---------------------|-------------------|-------------|

Gtr IV
D|------------------|---------------------|-------------------|-------------|
A|/10---(10)-8-10/11|(11)--(11)-8--6--5/8-|(8)---(8)---6—8/10-|(10)--/6--5--|
F|------------------|---------------------|-------------------|-------------|
C|------------------|---------------------|-------------------|-------------|
G|------------------|---------------------|-------------------|-------------|
C|------------------|---------------------|-------------------|-------------|


Gtrs I & II
D|-----------------|-----------------|------------------|-------------------|
A|-----------------|-----------------|------------------|-------------------|
F|-----------------|-----------------|------------------|--#--------#-------|
C|(7)--------------|----------------5|(5)---------------|--5fbr-3---3-------|
G|(5)-0-0-0-000-0-1|(1)-0-0-0-000-0-3|(3)-0-0-0-000-000-|---------5-------#-|
C|----0-0-0-000-0-1|(1)-0-0-0-000-0--|----0-0-0-000-000-|-0-----------5-3-5~|


Pre Chorus

Gtrs I & II
D|----------------|----------------|-----------------|----------------------|
A|----------------|----------------|-----------------|----------------------|
F|----------------|----------------|-----------------|----------------------|
C|----------------|----------------|-----------------|----------------------|
G|0000-0000000-000|0000-00000001111|-0000-0000000-000|0000-00000005\--------|
C|0000-0000000-000|0000-00000001111|-0000-0000000-000|0000-00000005\--------|

Gtr III
D|----------------|----------------|----------------|-----------------------|
A|----------------|----------------|----------------|-----------------------|
F|----------------|----------------|----------------|-----------------------|
C|--575---575---57|--575---575---57|--575---575---57|--575---575-7\---------|
G|58---858---858--|58---858---858--|58---858---858--|58---858---8-----------|
C|----------------|----------------|----------------|-----------------------|

Chorus

Gtrs I & II
D|-------------|----------------|-------------|-----------------------------|
A|-------------|----------------|-------------|-----------------------------|
F|-------------|----------------|-------------|-----------------------------|
C|-------------|-------------5/7|-------------|-----------------------------|
G|0----3----8\-|---5/6---3/5-3/5|0----3----8\-|--5/6---3/5--1---------------|
C|0--0-3--3-8\-|-0-5/6-0-3/5----|0--0-3--0-8\-|0-5/6-0-3/5--1---------------|X2

D|--------------|-------------|
A|--------------|-------------|
F|--------------|-------------|
C|--------------|-----------7-|
G|8------------7|(7)--5-3-0-5-|
C|8—10h12p10-8-7|(7)--5-3-0---|


Guitar Solo

Gtr III
D|------#----------|-#---------------|------------------|-------------------|
A|13fb-13fb~~------|10/-11--11fb(13)r|(11)--5-6-8-6-5---|#-----#----#-------|
F|-----------------|-----------------|----------------5-|5~-5--5~---7~~-----|
C|-----------------|-----------------|-----0------------|-------------------|
G|-----------------|-----------------|------------------|-------------------|
C|-----------------|-----------------|------------------|-------------------|


D|-----------------|-----------------|------------------|-------------------|
A|-----------------|-----------------|------------------|-------------------|
F|-----------------|-----------------|------------------|-------------------|
C|(7)--------------|----------------5|(5)---------------|---------------7---|
G|(5)-0-0-0-000-0-1|(1)-0-0-0-000-0-3|(3)-0-0-0-000-0---|---------------5---|
C|----0-0-0-000-0-1|(1)-0-0-0-000-0--|----0-0-0-000-0-00|333366665555-0-----|

Verse 2

Gtrs I & II
D|-----------------|-----------------|------------------|-------------------|
A|-----------------|-----------------|------------------|-------------------|
F|-----------------|-----------------|------------------|-------------------|
C|(7)--------------|----------------5|(5)---------------|---------------7---|
G|(5)-0-0-0-000-0-1|(1)-0-0-0-000-0-3|(3)-0-0-0-000-0---|---------------5---|
C|----0-0-0-000-0-1|(1)-0-0-0-000-0--|----0-0-0-000-0-00|333366665555-0-----|


D|-----------------|-----------------|------------------|-------------------|
A|-----------------|-----------------|------------------|-------------------|
F|-----------------|-----------------|------5---5-------|-------------------|
C|(7)-------------1|(1)-------------5|(5)-5---5---5-----|---------------7---|
G|(5)-0-0-0-000-0-1|(1)-0-0-0-000-0-3|(3)-----------3---|---------------5---|
C|----0-0-0-000-0--|----0-0-0-000-0--|----------------00|333366665555-0-----|


Gtrs I & II
D|----------------|----------------|----------------|-----------------------|
A|---------6------|--------6-------|---------3------|---------3-------------|
F|--------7--7----|------7---7-----|--------0--0----|--------0--0-----------|
C|(7)---7------7--|----7--------7--|------2------2--|------2------2-7-------|
G|(5)-5----------5|(5)------------3|(3)-3----------3|(3)-3----------5-------|
C|----------------|----------------|----------------|-----------------------|

Gtr III
D|------------------|---------------------|-------------------|-------------|
A|/13--(13)-11-13/15|(15)--(15)-11-10-8/11|(11)--(11)-10-11/13|(13)--/10--8-|
F|------------------|---------------------|-------------------|-------------|
C|------------------|---------------------|-------------------|-------------|
G|------------------|---------------------|-------------------|-------------|
C|------------------|---------------------|-------------------|-------------|

Gtr IV
D|------------------|---------------------|-------------------|-------------|
A|/10---(10)-8-10/11|(11)--(11)-8--6--5/8-|(8)---(8)---6—8/10-|(10)--/6--5--|
F|------------------|---------------------|-------------------|-------------|
C|------------------|---------------------|-------------------|-------------|
G|------------------|---------------------|-------------------|-------------|
C|------------------|---------------------|-------------------|-------------|


Gtrs I & II
D|-----------------|-----------------|------------------|-------------------|
A|-----------------|-----------------|------------------|-------------------|
F|-----------------|-----------------|------------------|-------------------|
C|(7)--------------|----------------5|(5)---------------|-------------------|
G|(5)-0-0-0-000-0-1|(1)-0-0-0-000-0-3|(3)-0-0-0-000-000-|-------------------|
C|----0-0-0-000-0-1|(1)-0-0-0-000-0--|----0-0-0-000-000-|3333666655553333---|

Chorus


D|-------------|----------------|-------------|-----------------------------|
A|-------------|----------------|-------------|-----------------------------|
F|-------------|----------------|-------------|-----------------------------|
C|-------------|-------------5/7|-------------|-----------------------------|
G|0----3----8\-|---5/6---3/5-3/5|0----3----8\-|--5/6---3/5--1---------------|
C|0--0-3--3-8\-|-0-5/6-0-3/5----|0--0-3--0-8\-|0-5/6-0-3/5--1---------------|

D|-------------|----------------|-------------|-----------------------------|
A|-------------|----------------|-------------|-----------------------------|
F|-------------|----------------|-------------|--#----------#---------------|
C|-------------|-------------5/7|-------------|--5fb-r-3----3---------------|
G|0----3----8\-|---5/6---3/5-3/5|0----3----8\-|-----------5--------#--------|
C|0--0-3--3-8\-|-0-5/6-0-3/5----|0--0-3--0-8\-|0---------------5-3-5~-------|


D|-------------|----------------|-------------|-----------------------------|
A|-------------|----------------|-------------|-----------------------------|
F|-------------|----------------|-------------|-----------------------------|
C|-------------|-------------5/7|-------------|-----------------------------|
G|0----3----8\-|---5/6---3/5-3/5|0----3----8\-|--5/6---3/5--1---------------|
C|0--0-3--3-8\-|-0-5/6-0-3/5----|0--0-3--0-8\-|0-5/6-0-3/5--1---------------|X2

D|--------------|-------------|
A|--------------|-------------|
F|--------------|-------------|
C|--------------|-------------|
G|8------------7|(7)--5-3-1-0-|
C|8—10h12p10-8-7|(7)--5-3-1-0-|

Bridge

Gtrs I & II
D|-------------------|----------------|---------------|---------------------|
A|-------------------|----------------|---------------|---------------------|
F|-----10--9h10p9----|--------12------|---------------|---------------------|
C|----------------10-|-----10----10---|---5-8—7h8p7---|---5-----5-----------|
G|(0)----------------|---8---------8--|------------8--|-----3-----3-0-------|
C|(0)-0--0----------8|(8)------------5|(5)---5-------3|(3)----5-----0-------|X2


D|-------------------|----------------|---------------|---------------------|
A|-------------------|----------------|---------------|---------------------|
F|-----10--9h10p9----|--------12------|--------------5|(5)-----3------------|
C|----------------10-|-----10----10---|---5-8—7h8p7---|---------------------|
G|(0)----------------|---8---------8--|------------8-3|(3)-----1---------0--|
C|(0)-0--0----------8|(8)------------5|(5)---5--------|------------------0--|


D|-------------------|----------------|----------------|--------------------|
A|-------------------|----------------|----------------|--------------------|
F|-----14--14p12-----|--------12------|--------------15|(15)-----14---------|
C|-------------------|-----10----10---|---5-8—7h8p7----|--------------------|
G|(0)----------------|---8---------8--|------------8-13|(13)-----12---------|
C|(0)-0--0------0---8|(8)------------5|(5)---5---------|--------------------|

Guitar Solo I

Gtr III
D|-----15181715--------------------|----------------20------21--------------|
A|18fb---------181715181715--15----|----2020----------201818----------------|
F|-------------------------18--1715|1517----18151715------------------------|
C|---------------------------------|----------------------------------------|
G|---------------------------------|----------------------------------------|
C|---------------------------------|----------------------------------------|


Gtrs I & II
D|---------------------------------|----------------------------------------|
A|---------------------------------|----------------------------------------|
F|---------------------------------|----------------------------------------|
C|---------------------------------|----------------------------------------|
G|---------------------------------|----------------------------------------|
C|0-0-0-0-0-0-0-0-0-0-0-0-0-0-0-0--|0-0-0-0-0-0-0-0-0-0-0-0-1-1-1-1---------|


D|(21)\-20fb-r-18-----------------|201817------201817------1715--------18/10|
A|----------------20~~------------|------201817------181715----18181715-----|
F|--------------------------------|-----------------------------------------|
C|--------------------------------|-----------------------------------------|
G|--------------------------------|-----------------------------------------|
C|--------------------------------|-----------------------------------------|

D|---------------------------------|----------------------------------------|
A|---------------------------------|----------------------------------------|
F|---------------------------------|----------------------------------------|
C|---------------------------------|----------------------------------------|
G|---------------------------------|----------------------------------------|
C|0-0-0-0-0-0-0-0-0-0-0-0-0-0-0-0--|0-0-0-0-0-0-0-0-0-0-0-0-1-1-1-1---------|


D|------------------------------------|-------------------------------------|
A|18p15--18p15--17--18p15--18p15--17--|15p11--15p11--13--17p13--17p13--15---|
F|-----14-----14--14-----14-----14--14|-----10-----10--10-----12-----12--12-|
C|------------------------------------|-------------------------------------|
G|------------------------------------|-------------------------------------|
C|------------------------------------|-------------------------------------|

D|---------------------------------|----------------------------------------|
A|---------------------------------|----------------------------------------|
F|---------------------------------|----------------------------------------|
C|---------------------------------|----------------------------------------|
G|---------------------------------|----------------------------------------|
C|0-0-0-0-0-0-0-0-0-0-0-0-0-0-0-0--|0-0-0-0-0-0-0-0-0-0-0-0-1-1-1-1---------|


D|------------------------------------|1713------131713------131512------121512-----|
A|18p15--18p15--17--18p15--18p15--17--|----15--15------15--15------13--13------13---|
F|-----14-----14--14-----14-----14--14|------14----------14----------12----------12~|
C|------------------------------------|---------------------------------------------|
G|------------------------------------|---------------------------------------------|
C|------------------------------------|---------------------------------------------|

Gtr IV
D|17p13--17p13--15--17p13--17p13--15--|-------------------------------------|
A|-----15-----15--15-----15-----15--15|-------------------------------------|
F|------------------------------------|-------------------------------------|
C|------------------------------------|-------------------------------------|
G|------------------------------------|-------------------------------------|
C|------------------------------------|-------------------------------------|

D|---------------------------------|----------------------------------------|
A|---------------------------------|----------------------------------------|
F|---------------------------------|----------------------------------------|
C|---------------------------------|-------------------------7--------------|
G|---------------------------------|----------------5--3--0--5--------------|
C|0-0-0-0-0-0-0-0-0-0-0-0-0-0-0-0--|0-0-0-0-0-0-0-0-5--3--0-----------------|


Guitar Solo II

Gtr III
D|-----------------|-----------------|------------------|-------------------|
A|----5-6-5-6-5---5|(5)----#-------6-|(6)5---5-6/8------|(8)-6-5~~----------|
F|(12)\---------7--|---7-5-7~~-------|-----7------------|-------------------|
C|-----------------|-----------------|------------------|-------------------|
G|-----------------|-----------------|------------------|-------------------|
C|-----------------|-----------------|------------------|-------------------|
 
Gtrs I & II
D|-----------------|-----------------|------------------|-------------------|
A|-----------------|-----------------|------------------|-------------------|
F|-----------------|-----------------|------------------|-------------------|
C|(7)--------------|----------------5|(5)---------------|---------------7---|
G|(5)-0-0-0-000-0-1|(1)-0-0-0-000-0-3|(3)-0-0-0-000-0---|---------------5---|
C|----0-0-0-000-0-1|(1)-0-0-0-000-0--|----0-0-0-000-0-00|333366665555-0-----|



D|-----------------|------------|-------------------------------------------|
A|(5)-6-5-6-5---5--|(5)--#------|---------------------------------------20fb|
F|------------7----|---7-7~~-/19|------------------------192122192122-19----|
C|-----------------|------------|------------171920171920-------------------|
G|-----------------|------------|171920171920-------------------------------|
C|-----------------|------------|-------------------------------------------|

Gtr IV
D|-----------------|-----#------|-------------------------------------------|
A|(5)-10-8-10-8-6-8|(8)6-8~~-/18|-------------------------------------------|
F|-----------------|------------|------------------------151719151719-------|
C|-----------------|------------|------------141517141517-------------------|
G|-----------------|------------|141517141517-------------------------------|
C|-----------------|------------|-------------------------------------------|

D|-----------------|-----------------|------------------|
A|-----------------|-----------------|------------------|
F|-----------------|-----------------|------5---5-------|
C|(7)--------------|----------------5|(5)-5---5---5-----|
G|(5)-0-0-0-000-0-1|(1)-0-0-0-000-0-3|(3)-----------3---|
C|----0-0-0-000-0-1|(1)-0-0-0-000-0--|----------------0-|


Gtr III
D|---------------------------------------|
A|(20)20fhb-r-18---18--------------------|
F|---------------19---19fhb-r-b-r-b-r----|
C|---------------------------------------|
G|---------------------------------------|
C|---------------------------------------|

Gtrs I & II           Gtr I
D|-------------------|-------------------|
A|-------------------|-------------------|
F|-#---------#-------|-#---------#-------|
C|-5fb-r-3---3-------|-5fb-r-3---3-------|
G|---------5-------#-|---------5-------#-|
C|0------------5-3-5~|0------------5-3-5~


Out Chorus

Gtrs I & II
D|-------------|----------------|-------------|-----------------------------|
A|-------------|----------------|-------------|-----------------------------|
F|-------------|----------------|-------------|-----------------------------|
C|-------------|-------------5/7|-------------|-----------------------------|
G|0----3----8\-|---5/6---3/5-3/5|0----3----8\-|--5/6---3/5--1---------------|
C|0--0-3--3-8\-|-0-5/6-0-3/5----|0--0-3--0-8\-|0-5/6-0-3/5--1---------------|

D|-------------|----------------|-------------|-----------------------------|
A|-------------|----------------|-------------|-----------------------------|
F|-------------|----------------|-------------|--#----------#---------------|
C|-------------|-------------5/7|-------------|--5fb-r-3----3---------------|
G|0----3----8\-|---5/6---3/5-3/5|0----3----8\-|-----------5--------#--------|
C|0--0-3--3-8\-|-0-5/6-0-3/5----|0--0-3--0-8\-|0---------------5-3-5~-------|


D|-------------|----------------|-------------|-----------------------------|
A|-------------|----------------|-------------|-----------------------------|
F|-------------|----------------|-------------|-----------------------------|
C|-------------|-------------5/7|-------------|-----------------------------|
G|0----3----8\-|---5/6---3/5-3/5|0----3----8\-|--5/6---3/5--1---------------|
C|0--0-3--3-8\-|-0-5/6-0-3/5----|0--0-3--0-8\-|0-5/6-0-3/5--1---------------|X2

D|--------------|-------------|----------------|
A|--------------|-------------|----------------|
F|--------------|-------------|----------------|
C|--------------|-----------7-|(7)\------------|
G|8------------7|(7)--5-3-0-5-|(5)\------------|
C|8—10h12p10-8-7|(7)--5-3-0---|----------------|


Legend

| /  | slide up
| \  | slide down
| h  | hammer-on
| p  | pull-off
| ~  | vibrato
| #  | Artificial Harmonic
| fb | Full Bend
| hb | Half Bend
|fhb | One and a Half Bend
| r  | Release
===============================================================================

4 comments total. Showing first comments.
0 reply
G0dzilla wrote on September 3 2009, 01:50 am

Looks pretty good actually, i play it a little differently but i don't feel like going into attempting to correct stuff, are you sure about the drop C though, i play it in drop d and it sounds pretty good...

+1 reply
soul_taker wrote on September 12 2009, 03:10 pm

It's known fact that Shadows Fall play in drop C and D standard.

0 reply
DuffMcKagan7179 wrote on September 12 2009, 05:12 pm

+1 to soul_taker. SF ALWAYS play a whole step down, be that D standard or Drop C, except for some songs on ToL; some of those are Drop D (Redemption, Stormwinds, Dread Uprising, etc.) and one is in Standard with a first fret capo (The Great Collapse).

I want to post or [tab]
guest
You may want to rate the tab now too:
select rating
Please do not post tabs as comments. Select "correction" instead!