Oops, an error
Loading. Please wait.

Still I Rise Tab

ver2
ver2

Whole song

Interactive

More versions @911Tabs.com
645 views 3 this week
no commentswrite comment
1 2 3 4 5
please rate
Autoscroll
+/-
esc
set tempo
stop
Contributor
Difficulty
Tuning
intermediate
C G C F A D
Hey! There's an official Ultimate Guitar app which is ideal
for learning songs when you're away from computer. Get the app
WARNING: You are trying to view
                                    content from Ultimate-Guitar.com
                                    in an unauthorized application,
                                    which is prohibited.

                                    Please use an official Ultimate
                                    Guitar Tabs application for iPhone,
                                    iPad or Android to access legitimate
                                    chords, guitar, bass, and drum tabs
                                    from Ultimate-Guitar.com database.

                                    Type "ultimate guitar tabs" in Apple
                                    App Store's or Android Market's
                                    search to find the application.
-------------------------------------------------------------------------------
                             Still I Rise - Shadows Fall
-------------------------------------------------------------------------------
This is my first tab. Please rate and comment.
Tabbed By: brandon52591
Email: brandon52591@yahoo.com
Tuning:Drop C


Intro:

 Gtr 1(Lead)
D|-----------------------------------------------------------------------------|
A|-----------------------------------------------------------------------------|
F|-----------------------------------------------------------------------------|
c|-----------------------------------------------------------------------------|
G|-----------------------------------------------------------------------------|
C|-0000-0000000-0000000-000000011110000-0000000-0000000-0000000(17)\-----------|x2
PM-----------------------------------------------------------------------------|


 Gtr 2
D|-----------------------------------------------------------------------------|
A|-----------------------------------------------------------------------------|
F|-----------------------------------------------------------------------------|
c|-----------------------------------------------------------------------------|
G|-----------------------------------------------------------------------------|
C|-0000-0000000-0000000-000000011110000-0000000-0000000-00000005\--------------|x2
PM-----------------------------------------------------------------------------|


 Gtr 1
D|-----------------------------------------------------------------------------|
A|-----------------------------------------------------------------------------|
F|-----------------------------------------------------------------------------|
c|-------5-7-5-------5-7-5-------5-8-----5-7-5-------5-7-5-------5-7-----------|
G|---5-8-------8-5-8-------8-5-8-----5-8-------8-5-8-------8-5-8---------------|
C|-----------------------------------------------------------------------------|x4
PM-----------------------------------------------------------------------------|


 Gtr 2
D|-----------------------------------------------------------------------------|
A|-----------------------------------------------------------------------------|
F|-----------------------------------------------------------------------------|
c|-----------------------------------------------------------------------------|
G|-----------------------------------------------------------------------------|
C|-0000-0000000-0000000-000000011110000-0000000-0000000-00000005\--------------|x2
PM-----------------------------------------------------------------------------|

 Gtr1                                                                  x4=            x3      x1
D|-----------------------------------------------------------------------|-------------|-------|
A|-----------------------------------------------------------------------|-------------|-------|
F|-----12-14-12--------12-14-12--------12-17-----12-15-12--------12-15-12|--------12-15|---14--|
c|12-15--------15-12-15--------15-12-15-----12-15--------15-12-15--------|15-12-15-----|-15----|
G|-----------------------------------------------------------------------|-------------|-------|
C|-----------------------------------------------------------------------|-------------|-------|
PM---------------------------------------------------------------------------------------------|


Gtr 2                                                  x2      x1      x1
D|-------------------------------------------------------|------|---------|
A|-------------------------------------------------------|------|---------|
F|-------------------------------------------------------|------|---------|
c|-------------------------------------------------------|------|---------|
G|-------------------------------------------------------|------|---------|
C|-000000000000000000000000000033333333333333333333333333|-6666-|--5\-----|
PM------------------------------------------------------------------------|


 Gtr 1&2
D|-----------------------------------------------------------------------------|
A|-----------------------------------------------------------------------------|
F|-----------------------------------------------------------------------------|
c|-----------------------------------------------------------------------------|
G|----------------------------------------------------------3-3-1--------------|
C|-0000-0000000-0000000-000000011110000-0000000-0000000-000-3-3-1--------------|
PM-----------------------------------------------------------------------------|


Verse:

 Gtrs 1&2
D|---------------------------------------------------------------------------|
A|---------------------------------------------------------------------------|
F|---------------------------------------------------------------------------|
c|-7\--------------1-0-----------5-0-----------------------------------------|
G|-5\--------------1-0-----------3-0-----------------------------------------|
C|-----0-0-0-000-0-----0-0-000-0-----0-0-000--0--3333666655553---------------|
PM     - - - --- -     - - --- -     - - ---     -------------


D|---------------------------------------------------------------------------|
A|---------------------------------------------------------------------------|
F|----------------7-------------0--0--------0--------------------------------|
c|-7\-------------8-------------2-----2--------2-----------------------------|
G|-5\-------------5-------------3--------3--------3--------------------------|
C|----0-0-0-000-0---0-0-0-000-0-------------------------3333666655553--------|
PM    - - - --- -   - - - --- -                         -------------


Pre-Chorus:

Gtr 1
D|-----------------------------------------------------------|
A|--------6-------------6-------------3-------------3--------|
F|------0---0---------0---0---------0---0---------0---0------|
c|----7-------7-----8-------8-----2-------2-----2-------2----|
G|--5-------------5-------------3-------------3--------------|
C|-----------------------------------------------------------|


 Gtr 2
D|---------------------------------------------------------------------------|
A|--/10~--8--10\11~---8-6-5\8~---6-8\10~--6-5--------------------------------|
F|---------------------------------------------------------------------------|
c|---------------------------------------------------------------------------|
G|---------------------------------------------------------------------------|
C|---------------------------------------------------------------------------|


 Gtrs 1
D|---------------------------------------------------------------------------|
A|---------------------------------------------------------------------------|
F|---------------------------------------------------------------------------|
c|-7--------------1-0-----------5-0----------------5*br-3---3*---------------|
G|-5--------------1-0-----------3-0-----------------------5------------------|
C|----0-0-0-000-0-----0-0-000-0-----0-0-000-0-0-0--------------5-3-5*--------|
PM    - - - --- -     - - --- -     - - --- - - -


 Gtr 2
D|---------------------------------------------------------------------------|
A|---------------------------------------------------------------------------|
F|---------------------------------------------------------------------------|
c|-7--------------1-0-----------5-0------------------------------------------|
G|-5--------------1-0-----------3-0----------------5br---3-------------------|
C|----0-0-0-000-0-----0-0-000-0-----0-0-000-0-0-0------0---5-3-5-------------|
PM    - - - --- -     - - --- -     - - --- - - -      -   - -


 Interlude:

 Gtr 1
D|-----------------------------------------------------------------------------|
A|-----------------------------------------------------------------------------|
F|-----------------------------------------------------------------------------|
c|-----5-7-5-------5-7-5-------5-8------5-7-5-------5-7-5---7\-----------------|
G|-5-8-------8-5-8-------8-5-8------5-8-------8-5-8-------8--------------------|
C|-----------------------------------------------------------------------------|
PM-----------------------------------------------------------------------------|


 Gtr 2
D|-----------------------------------------------------------------------------|
A|-----------------------------------------------------------------------------|
F|-----------------------------------------------------------------------------|
c|-----------------------------------------------------------------------------|
G|-------------------------------------------------------------8\--------------|
C|-0000-0000000-0000000-000000011110000-0000000-0000000-00000008\--------------|
PM-----------------------------------------------------------------------------|


Chorus:

 Gtrs 1&2                                                       x2
D|-----------------------------------------------------------------|----------------------|
A|-----------------------------------------------------------------|----------------------|
F|-----------------------------------------------------------------|--------3-------------|
c|-------------------------------5/-7------------------------------|-3------3--5-2--------|
G|-0--00-3--00-8\--00-5-6-00-3-5-3/-5---0-00-3-00-8\-00-5-6-0-3-5-1|-1--3\5----5-0---3-3-1|
C|-0--00-3--00-8\--00-5-6-00-3-5--------0-00-3-00-8\-00-5-6-0-3-5-1|-----------------3-3-1|
PM    --    --     --     --              --   --    --                              - - -


 Gtr 1
D|---------------------------------------------------------------------------|
A|-13b-13*b------10-11-11\13-11~---------------------------------------------|
F|-------------10-----------------------9-10-12-10-9---9*--9*-7*brbrbr-------|
c|-----------12-----------------------11-------------10--10------------------|
G|----------------------------------12---------------------------------------|
C|---------------------------------------------------------------------------|
PM                                                    -   -

 Gtr 2
D|---------------------------------------------------------------------------|
A|---------------------------------------------------------------------------|
F|---------------------------------------------------------------------------|
c|-7\-------------1-0-----------5-0------------------------------------------|
G|-5\-------------1-0-----------3-0------------------------------------------|
C|----0-0-0-000-0-----0-0-000-0-----0-0-000--0--3333666655553----------------|
PM    - - - --- -     - - --- -     - - ---     -------------


 Verse:

 Gtr 1&2
D|---------------------------------------------------------------------------|
A|---------------------------------------------------------------------------|
F|---------------------------------------------------------------------------|
c|-7\-------------1-0-----------5-0------------------------------------------|
G|-5\-------------1-0-----------3-0------------------------------------------|
C|----0-0-0-000-0-----0-0-000-0-----0-0-000--0--3333666655553----------------|
PM    - - - --- -     - - --- -     - - ---     -------------


D|---------------------------------------------------------------------------|
A|---------------------------------------------------------------------------|
F|----------------7-------------0--0------0----------------------------------|
c|-7\-------------8-------------2----2------2--------------------------------|
G|-5\-------------5-------------3------3------3------------------------------|
C|----0-0-0-000-0---0-0-0-000-0------------------3333666655553---------------|
PM    - - - --- -   - - - --- -                  -------------

Pre-Chorus:

Gtr 1
D|-----------------------------------------------------------|
A|--------6-------------6-------------3-------------3--------|
F|------0---0---------0---0---------0---0---------0---0------|
c|----7-------7-----8-------8-----2-------2-----2-------2----|
G|--5-------------5-------------3-------------3--------------|
C|-----------------------------------------------------------|

 Gtr 2
D|---------------------------------------------------------------------------|
A|--/10~--8--10\11~---8-6-5\8~---6-8\10~--6-5--------------------------------|
F|---------------------------------------------------------------------------|
c|---------------------------------------------------------------------------|
G|---------------------------------------------------------------------------|
C|---------------------------------------------------------------------------|

 Gtrs 1&2
D|---------------------------------------------------------------------------|
A|---------------------------------------------------------------------------|
F|---------------------------------------------------------------------------|
c|-7\--------------1-0-----------5-0-----------------------------------------|
G|-5\--------------1-0-----------3-0-----------------------------------------|
C|-----0-0-0-000-0-----0-0-000-0-----0-0-000--0--3333666655553---------------|
PM     - - - --- -     - - --- -     - - ---     -------------


 Chorus:

 Gtr 1                                                              x1                 x1
D|---------------------------------------------------|---------------|------------------------|
A|---------------------------------------------------|---------------|------------------------|
F|---------------------------------------------------|---------------|------------------------|
c|-------------------------------5/-7----------------|---------------|-5*br-3---3*------------|
G|-0--00-3--00-8\--00-5-6-00-3-5-3/-5---0-00-3-00-8\-|-00-5-6-0-3-5-1|--------5---------------|
C|-0--00-3--00-8\--00-5-6-00-3-5--------0-00-3-00-8\-|-00-5-6-0-3-5-1|-------------5-3-5*-----|
PM    --    --     --     --              --   --      --


 Gtr 2                                                              x1                     x1
D|---------------------------------------------------|---------------|----------------------|
A|---------------------------------------------------|---------------|----------------------|
F|---------------------------------------------------|---------------|----------------------|
c|-------------------------------5/-7----------------|---------------|----------------------|
G|-0--00-3--00-8\--00-5-6-00-3-5-3/-5---0-00-3-00-8\-|-00-5-6-0-3-5-1|-5br---3--------------|
C|-0--00-3--00-8\--00-5-6-00-3-5--------0-00-3-00-8\-|-00-5-6-0-3-5-1|-----0---5-3-5--------|
PM    --    --     --     --              --   --      --                  -   - -

 Gtr 1                                                              x2
D|------------------------------------------------------------------|------------------------|
A|------------------------------------------------------------------|------------------------|
F|------------------------------------------------------------------|---------3--------------|
c|-------------------------------5/-7-------------------------------|-3~------3-5-2~---------|
G|-0--00-3--00-8\--00-5-6-00-3-5-3/-5---0-00-3-00-8\--00-5-6-0-3-5-1|-1~--3/5---5-0~---3-3-1-|
C|-0--00-3--00-8\--00-5-6-00-3-5--------0-00-3-00-8\--00-5-6-0-3-5-1|------------------3-3-1-|
PM    --    --     --     --              --   --     --                               - - -


 Gtr 2                                                             x2
D|------------------------------------------------------------------|------------------------|
A|------------------------------------------------------------------|------------------------|
F|------------------------------------------------------------------|---------3--------------|
c|-------------------------------5/-7-------------------------------|-3~------3--5-2~--------|
G|-0--00-3--00-8\--00-5-6-00-3-5-3/-5---0-00-3-00-8\--00-5-6-0-3-5-1|-1~--3\5----5-0~---3-3-1|
C|-0--00-3--00-8\--00-5-6-00-3-5--------0-00-3-00-8\--00-5-6-0-3-5-1|-------------------3-3-1|
PM    --    --     --     --              --   --     --                                - - -


 Bridge:
 Gtr 1
D|---------------------------------------------------------------------------|
A|---------------------------------------------------------------------------|
F|------10---9h10p9------------12--------------------------------------------|
c|---------0--------10------10----10---------8---7h8p7-------5-----5---------|
G|----0-------------------8----------8-----5---5-------8-------3-----3-------|
C|--0-------------------8----------------5-----------------3------5----------|x4
PM    -    -                               -   -

 Gtr 2(comes in after guitar 1 plays twice)
D|------------------------------------------------------------------------------|
A|------------------------------------------------------------------------------|
F|------------------------------------------------------------------------------|
c|--0~---0-0-0-0-0-0----8~---8-8-8-8-8-8----3~---3-3-3-3-3-3----5~---5-5-5-5-5-5|
G|--0~---0-0-0-0-0-0----8~---8-8-8-8-8-8----3~---3-3-3-3-3-3----5~---5-5-5-5-5-5|
C|--0~---0-0-0-0-0-0----8~---8-8-8-8-8-8----3~---3-3-3-3-3-3----5~---5-5-5-5-5-5|x2

 Solo:

 Gtr 1
D|------15181715-----------------------------15---------212018----21b-20brp18---------|
A|--18b----------181715181715---15-----------------------------20-------------------20|
F|----------------------------18---1817151718---18171517------------------------------|
c|------------------------------------------------------------------------------------|
G|------------------------------------------------------------------------------------|
C|------------------------------------------------------------------------------------|

D|-201817------201817-------181715------17\----------------------------------|
A|-------201817------201817-------181715-------------------------------------|
F|---------------------------------------------------------------------------|
c|---------------------------------------------------------------------------|
G|---------------------------------------------------------------------------|
C|---------------------------------------------------------------------------|


                                    x2                                       x1
D|-13p10--13p10--12--13p10--13p10--12-|-10p6---10p6---8--12p8---12p8---10-----|
A|------10-----10---------10-----10---|------6------6---------8------8--------|
F|------------------------------------|---------------------------------------|
c|------------------------------------|---------------------------------------|
G|------------------------------------|---------------------------------------|
C|------------------------------------|---------------------------------------|

D|--17p13------13-17p13----15p12------12-15----------------------------------|
A|-------15--15--------15-------13--13---------------------------------------|
F|---------14---------------------12-----------------------------------------|
c|---------------------------------------------------------------------------|
G|---------------------------------------------------------------------------|
C|---------------------------------------------------------------------------|

D|---------------------------------------------------------------------------|
A|-/6-5-6-5*-3*-5*-3-------/6-5-3-5-6-6\8-6-5~---6*-5*-6*-5-3-5*-3*----------|
F|-------------------5*~--------------------------------------------5*~------|
c|---------------------------------------------------------------------------|
G|---------------------------------------------------------------------------|
C|---------------------------------------------------------------------------|

D|---------------------------------------------------------------------------|
A|-------------------------------------17--20br-18171817---------------------|
F|-------------------------151719151719------------------191719~-------------|
c|-------------151719151719--------------------------------------------------|
G|-151718151718--------------------------------------------------------------|
C|---------------------------------------------------------------------------|


D|---------------------------------------------------------------------------|
A|---------------------------------------------------------------------------|
F|---------------------------------------------------------------------------|
c|----5*br-3---3*------------------------------------------------------------|
G|-----------5---------------------------------------------------------------|
C|-----------------5-3-5*----------------------------------------------------|


 Gtr 2(under solo)
Gtr 2
D|-----------------------------------------------------------------------------|
A|-----------------------------------------------------------------------------|
F|-----------------------------------------------------------------------------|
c|-----------------------------------------------------------------------------|
G|-----------------------------------------------------------------------------|
C|-0000-0000000-0000000-000000011110000-0000000-0000000-00000005\--------------|
PM-----------------------------------------------------------------------------|


D|-----------------------------------------------------------------------------|
A|-----------------------------------------------------------------------------|
F|-----------------------------------------------------------------------------|
c|-----------------------------------------------------------------------------|
G|----------------------------------------------------------3-3-1--------------|
C|-0000-0000000-0000000-000000011110000-0000000-0000000-000-3-3-1--------------|
PM-----------------------------------------------------------------------------|


D|---------------------------------------------------------------------------|
A|---------------------------------------------------------------------------|
F|---------------------------------------------------------------------------|
c|-7\--------------1-0-----------5-0-----------------------------------------|
G|-5\--------------1-0-----------3-0-----------------------------------------|
C|-----0-0-0-000-0-----0-0-000-0-----0-0-000--0--3333666655553---------------|
PM     - - - --- -     - - --- -     - - ---     -------------

D|---------------------------------------------------------------------------|
A|---------------------------------------------------------------------------|
F|----------------7-------------0--0--------0--------------------------------|
c|-7\-------------8-------------2-----2--------2-----------------------------|
G|-5\-------------5-------------3--------3--------3--------5br---3-----------|
C|----0-0-0-000-0---0-0-0-000-0-------------------------0------0---5-3-5-----|
PM    - - - --- -   - - - --- -                         -      -   - -


Chorus:

 Gtr 1                                             x2               x1                 x1
D|---------------------------------------------------|---------------|------------------------|
A|---------------------------------------------------|---------------|------------------------|
F|---------------------------------------------------|---------------|------------------------|
c|-------------------------------5/-7----------------|---------------|-5*br-3---3*------------|
G|-0--00-3--00-8\--00-5-6-00-3-5-3/-5---0-00-3-00-8\-|-00-5-6-0-3-5-1|--------5---------------|
C|-0--00-3--00-8\--00-5-6-00-3-5--------0-00-3-00-8\-|-00-5-6-0-3-5-1|-------------5-3-5*-----|
PM    --    --     --     --              --   --      --

 Gtr 2                                              x2              x1                     x1
D|---------------------------------------------------|---------------|----------------------|
A|---------------------------------------------------|---------------|----------------------|
F|---------------------------------------------------|---------------|----------------------|
c|-------------------------------5/-7----------------|---------------|----------------------|
G|-0--00-3--00-8\--00-5-6-00-3-5-3/-5---0-00-3-00-8\-|-00-5-6-0-3-5-1|-5br---3--------------|
C|-0--00-3--00-8\--00-5-6-00-3-5--------0-00-3-00-8\-|-00-5-6-0-3-5-1|-----0---5-3-5--------|
PM    --    --     --     --              --   --      --                  -   - -


 Gtr 1                                                              x2
D|------------------------------------------------------------------|--------------------------|
A|------------------------------------------------------------------|--------------------------|
F|------------------------------------------------------------------|---------3----------------|
c|-------------------------------5/-7-------------------------------|-3~------3-5-2~---------7\|
G|-0--00-3--00-8\--00-5-6-00-3-5-3/-5---0-00-3-00-8\--00-5-6-0-3-5-1|-1~--3/5---5-0~---3-3-1-5\|
C|-0--00-3--00-8\--00-5-6-00-3-5--------0-00-3-00-8\--00-5-6-0-3-5-1|------------------3-3-1---|
PM    --    --     --     --              --   --     --                               - - -

 Gtr 2                                                             x2
D|------------------------------------------------------------------|--------------------------|
A|------------------------------------------------------------------|--------------------------|
F|------------------------------------------------------------------|---------3----------------|
c|-------------------------------5/-7-------------------------------|-3~------3-5-2~---------7\|
G|-0--00-3--00-8\--00-5-6-00-3-5-3/-5---0-00-3-00-8\--00-5-6-0-3-5-1|-1~--3\5---5-0~---3-3-1-5\|
C|-0--00-3--00-8\--00-5-6-00-3-5--------0-00-3-00-8\--00-5-6-0-3-5-1|------------------3-3-1---|
PM    --    --     --     --              --   --     --                               - - -




************************************

| /   slide up
| \   slide down
| h   hammer-on
| p   pull-off
| +   vibrato
| *   harmonic
| x   Mute note
| b   Bend
| pb  Pre-bend
| br  Bend release
| pbr Pre-bend release
| brb Bend release bend
| ~   Let Ring

************************************
comments
We did not receive enough feedback on this tab! Please rate:
print report bad tab
1 2 3 4 5
I want to post or [tab]
guest
You may want to rate the tab now too:
select rating
Please do not post tabs as comments. Select "correction" instead!