Oops, an error
Loading. Please wait.

Storm Winds Tab

2,382 views 1 this week
no commentswrite comment
1 2 3 4 5
please rate
add to favorites launch autoscroll
font size
0
reset
Autoscroll
+/-
esc
set tempo
stop
Contributor
Difficulty
Tuning
advanced
D A D G B E
WARNING: You are trying to view
                                    content from Ultimate-Guitar.com
                                    in an unauthorized application,
                                    which is prohibited.

                                    Please use an official Ultimate
                                    Guitar Tabs application for iPhone,
                                    iPad or Android to access legitimate
                                    chords, guitar, bass, and drum tabs
                                    from Ultimate-Guitar.com database.

                                    Type "ultimate guitar tabs" in Apple
                                    App Store's or Android Market's
                                    search to find the application.
-------------------------------------------------------------------------------
                             "Storm Winds" --- Shadows Fall
-------------------------------------------------------------------------------

Tabbed by: [travis]


Key: F Major [F G A Bb C D E]

Tuning: Drop D -- D A D G B E (low to high)


Legend:

... = palm mute
h = hammer on
p = pull off
__ = hold bend
b = bend
pb = pre bend
1 = whole step bend
.5 = half step bend
.25 = quarter step bend
\ = slide down
/ = slide up
x = mute string with fret hand
~ = vibrato
h/ = pick once
h/p\ = pick once
* = pinch harmonic
() = bent note is brought back to normal
T = tap with pick hand
L = tap with fret hand


*Go easy on me with the solo. It's a pretty damn hard solo to tab out.
 Theres's a lot of tapping going on, and it's the best I could tab.

*The way I got the intro was from a column that Jon and Matt were doing
in Guitar World for a while. They showed how to play the intro of this song,
and they also showed some parts of "Redemption."

==============================================

Intro:

Guitars 1 and 2:
e|---------------------|
B|---------------------|
G|---------------------|
D|-5-3----------0~~~~--|
A|-5-3---1-1-1--0~~~~--|
D|-5-3---1-1-1--0~~~~--|
         .....

===============================================
Guitar 1:  All the 0s are tremelo picked. The other numbers are picked once.
           Listen for the rhythm of the 0s.
e|-------------------------------------------------------------------------------|
B|-------------------------------------------------------------------------------|
G|-------------------------------------------------------------------------------|
D|-7-0-5-0-8-0-7-0-5-8-7-5-2-3-5-0-7-0-5-0-7-8-0-7-0-5-8-7-5-2-3-5-0-7-0-5-0-8-0-|
A|-------------------------------------------------------------------------------|
D|-------------------------------------------------------------------------------|
   .............................................................................


===============================================
Guitar 1: Same as above.
e|-------------------------------|
B|-------------------------------|
G|-------------------------------|
D|-0-7-0-5-8-7-5-2-3-5-0-7-0-5-0-|
A|-------------------------------|
D|-------------------------------|
   .............................

================================================
Guitars 1 and 2:
e|-------------------|
B|-------------------|
G|-------------------|
D|-3-5--6--5--3---0--|
A|-3-5--6--5--3---0--|
D|-3-5--6--5--3---0--|

================================================
Guitar 1: The 0s are tremelo picked.
e|---------------------------------------------|
B|---------------------------------------------|
G|---------------------------------------------|
D|-7-0-5-0-8-0-7-0-5-8-7-5-2-3-5-0-7-0-5-0-8-0-|
A|---------------------------------------------|
D|---------------------------------------------|
   ...........................................
                                                 
Guitar 2: Both notes are tremelo picked.                                        
e|---------------------------------------------|
B|---------------------------------------------|
G|---------------------------------------------|
D|---------------------------------------------|
A|---------------------------------------------|
D|-0-----------------------------8-------------|
   ............................................

=================================================
Guitar 1: 0s are tremelo picked.
e|-------------------------------------------------------|
B|-------------------------------------------------------|
G|-------------------------------------------------------|
D|-0-7-0-5-8-7-5-2-3-5-0-7-0-5-0-8-0-7-0-5-8-7-5-2-3-5-0-|
A|-------------------------------------------------------|
D|-------------------------------------------------------|
   ......................................................

Guitar 2: Both notes tremelo picked.
e|-------------------------------------------------------|
B|-------------------------------------------------------|
G|-------------------------------------------------------|
D|-------------------------------------------------------|
A|-------------------------------------------------------|
D|-8-------------------5---------------------------------|
   ......................................................

====================================================
Guitar 1: 0s are tremelo picked.
e|-----------|
B|-----------|
G|-----------|
D|-0-7-0-5-0-|
A|-----------|
D|-----------|
   .........

Guitar 2: Tremelo picked.
e|-----------|
B|-----------|
G|-----------|
D|-----------|
A|-----------|
D|-7---------|
   ..........

=======================================================
Guitars 1 and 2:
e|-------------------|
B|-------------------|
G|-------------------|
D|-3-5--6--5--3---0--|
A|-3-5--6--5--3---0--|
D|-3-5--6--5--3---0--|

=======================================================
Guitar 1: The 0s are tremelo picked.
e|---------------------------------------------|
B|---------------------------------------------|
G|---------------------------------------------|
D|-7-0-5-0-8-0-7-0-5-8-7-5-2-3-5-0-7-0-5-0-8-0-|
A|---------------------------------------------|
D|---------------------------------------------|
   ...........................................
                                                 
Guitar 2: Both notes are tremelo picked.                                        
e|---------------------------------------------|
B|---------------------------------------------|
G|---------------------------------------------|
D|---------------------------------------------|
A|---------------------------------------------|
D|-0-----------------------------8-------------|
   ............................................

=================================================
Guitar 1: 0s are tremelo picked.
e|-------------------------------------------------------|
B|-------------------------------------------------------|
G|-------------------------------------------------------|
D|-0-7-0-5-8-7-5-2-3-5-0-7-0-5-0-8-0-7-0-5-8-7-5-2-3-5-0-|
A|-------------------------------------------------------|
D|-------------------------------------------------------|
   ......................................................

Guitar 2: Both notes tremelo picked.
e|-------------------------------------------------------|
B|-------------------------------------------------------|
G|-------------------------------------------------------|
D|-------------------------------------------------------|
A|-------------------------------------------------------|
D|-8-------------------5---------------------------------|
   ......................................................

====================================================
Guitar 1: 0s are tremelo picked.
e|-----------|
B|-----------|
G|-----------|
D|-0-7-0-5-0-|
A|-----------|
D|-----------|
   .........

Guitar 2: Tremelo picked.
e|-----------|
B|-----------|
G|-----------|
D|-----------|
A|-----------|
D|-7---------|
   ..........

=======================================================
Guitars 1 and 2: Let the last chord ring into the lyrics below.
e|-------------------|
B|-------------------|
G|-------------------|
D|-3-5--6--5--3---0--|
A|-3-5--6--5--3---0--|
D|-3-5--6--5--3---0--|

=======================================================
"Fighting to control my mind."
The last chord from above rings out on this part.
=======================================================
"But tragedy...find!"
Guitar 1: Pick the chord near the bridge to get that "twang" sound.
e|-0~~~~~--------------------------------------|
B|-3~~~~~--------------------------------------|
G|-2~~~~~--------------------------------------|
D|-0~~~~~------------------------------3-2---2-|
A|-0~~~~~------------------------5-3-5-----3---|
D|-0~~~~~--------------------------------------|

Guitar 2: Same as above.
e|-0~~~~~--------------------------------------------|
B|-3~~~~~--------------------------------------------|
G|-2~~~~~--------------------------------------------|
D|-0~~~~~--------------------------------------------|
A|-0~~~~~------------------------------5-------------|
D|-0~~~~~------------------------8-7-8---10-8-7-10/0-|

==========================================================
"Builds up from deep...mind"
Guitars 1 and 2:
e|-----------------------------------------------------------------|
B|-----------------------------------------------------------------|
G|-----------------------------------------------------------3-----|
D|-3-1-----1-----0-1-0-------3-----1-----0-----3-1-----1-----3-1-0-|
A|-3-1--0--1--0--0-1-0--0-0--3--0--1--0--0--0--3-1--0--1--0--1-1-0-|
D|-3-1--0--1--0--0-1-0--0-0--3--0--1--0--0--0--3-1--0--1--0----1-0-|
        .     .         ...     .     .     .       .     .

==========================================
"Always thought...end with the"
Guitars 1 and 2:
e|--------------------------------------------------------------------|
B|--------------------------------------------------------------------|
G|--------------------------------------------------------------------|
D|----------1-0-----------1-0-3-1-----1-----0-1-0-------3-----1-----0-|
A|----------1-0-----------1-0-3-1--0--1--0--0-1-0--0-0--3--0--1--0--0-|
D|-0-0-0-0--1-0--0-0-0-0--1-0-3-1--0--1--0--0-1-0--0-0--3--0--1--0--0-|
   .......       .......           .     .         ...     .     .      

=========================================
"passage of time. No matter"
Guitars 1 and 2:
e|---------------------------------------------------------|
B|---------------------------------------------------------|
G|------------------3--------------------------------------|
D|----3-1-----1-----3-1-0----------------------------------|
A|-0--3-1--0--1--0--1-1-0--------------------------------5-|
D|-0--3-1--0--1--0----1-0--0-0-0-0-3-0-0-0-0-8-0-0-0-0-6---|
   .       .     .         .............................

=========================================
"How many layers...yourself"
Guitars 1 and 2:
e|-----------------------------------------------------------------|
B|-----------------------------------------------------------------|
G|-----------------------------------------------------------3-----|
D|-3-1-----1-----0-1-0-------3-----1-----0-----3-1-----1-----3-1-0-|
A|-3-1--0--1--0--0-1-0--0-0--3--0--1--0--0--0--3-1--0--1--0--1-1-0-|
D|-3-1--0--1--0--0-1-0--0-0--3--0--1--0--0--0--3-1--0--1--0----1-0-|
        .     .         ...     .     .     .       .     .

==========================================
"They will all crack...to reveal"
Guitars 1 and 2:
e|--------------------------------------------------------------------|
B|--------------------------------------------------------------------|
G|--------------------------------------------------------------------|
D|----------1-0-----------1-0-3-1-----1-----0-1-0-------3-----1-----0-|
A|----------1-0-----------1-0-3-1--0--1--0--0-1-0--0-0--3--0--1--0--0-|
D|-0-0-0-0--1-0--0-0-0-0--1-0-3-1--0--1--0--0-1-0--0-0--3--0--1--0--0-|
   .......       .......           .     .         ...     .     .      

=========================================
"Something else."
Guitars 1 and 2:
e|---------------------------------------------------------|
B|---------------------------------------------------------|
G|------------------3--------------------------------------|
D|----3-1-----1-----3-1-0----------------------------------|
A|-0--3-1--0--1--0--1-1-0--------------------------------5-|
D|-0--3-1--0--1--0----1-0--0-0-0-0-3-0-0-0-0-8-0-0-0-0-6---|
   .       .     .         .............................

==========================================
Cool Part:
"From the past we must break free"
Guitar 1:
e|-----------------------------------------------------------------|
B|-----------------------------------------------------------------|
G|-----------------------------------------------------------------|
D|---------7-------5-7-5-------------------7-------5-7-5---------5-|
A|-----8-------------------7---7-8-----8-------------------7---7---|
D|-0-0---0---0-0-0-------8---8-----0-0---0---0-0-0-------8---8-----|
   ...   .   .....       .   .     ...   .   .....       .   .

Guitar 2:
e|-----------------------------------------------------------------|
B|-----------------------------------------------------------------|
G|-----------------------------------------------------------------|
D|---------------------------------------------------------------2-|
A|-----5---8-------7-8-7---3---3-5-----5---8-------7-8-7---3---3---|
D|-0-0---0---0-0-0-------5---5-----0-0---0---0-0-0-------5---5-----|
   ...   .   .....       .   .     ...   .   .....       .   .

=========================================
"Come to terms with all that tortures me"
Guitar 1:
e|-----------------------------------------------------------------|
B|-----------------------------------------------------------------|
G|-----------------------------------------------------------------|
D|---------7-------5-7-5-------------------7-------5-7-5---------5-|
A|-----8-------------------7---7-8-----8-------------------7---7---|
D|-0-0---0---0-0-0-------8---8-----0-0---0---0-0-0-------8---8-----|
   ...   .   .....       .   .     ...   .   .....       .   .

Guitar 2:
e|-----------------------------------------------------------------|
B|-----------------------------------------------------------------|
G|-----------------------------------------------------------------|
D|-----------------------------------------------------------------|
A|-----5---8-------7-8-7---3---3-5-----5---8-------7-8-7---3---3---|
D|-0-0---0---0-0-0-------5---5-----0-0---0---0-0-8-------5---5---0-|
   ...   .   .....       .   .     ...   .   .....       .   .

===========================================
Guitar 1: 0s are tremelo picked
e|----------------------------------------------------------|
B|----------------------------------------------------------|
G|----------------------------------------------------------|
D|-0--7-0-5-0-8-0-7-0-5-8-7-5-2-3-5-0-7-0-5-0--3--5--6--5-3-|
A|-0-------------------------------------------3--5--6--5-3-|
D|-0-------------------------------------------3--5--6--5-3-|
      .......................................

Guitar 2:
e|----------------------------------------------------------|
B|----------------------------------------------------------|
G|----------------------------------------------------------|
D|-0~~~~~~~~~~~~~~~~~~~~~~~~~~~~~~~~~~~~~~~~~--3--5--6--5-3-|
A|-0~~~~~~~~~~~~~~~~~~~~~~~~~~~~~~~~~~~~~~~~~--3--5--6--5-3-|
D|-0~~~~~~~~~~~~~~~~~~~~~~~~~~~~~~~~~~~~~~~~~--3--5--6--5-3-|

============================================
Chorus:
"Tragic memories invade"
Guitars 1 and 2:
e|---------------------------3--------1-----------------------------|
B|-3---------------------------3---------1------------------------3-|
G|-2------------10----9----5------3-------------------------------2-|
D|-0------------8-----8--5--------3-------------------------------0-|
A|-0--0-0-0-0-0----0--------------1---------7---7--0-0--12-12--0--0-|
D|-0--0-0-0-0-0----0------------------------7---7--0-0--11-11--0--0-|
      .........    .                               ...         .

===========================================
"Let the storm winds wash them all away"
Guitars 1 and 2:
e|------------------------3--------1----------------------------|
B|--------------------------3--------1--------------------------|
G|-----------10----9----5------3--------------------------------|
D|-----------8-----8--5--------3--------------------------------|
A|-0-0-0-0-0----0--------------1--------7---7--0-0--12-12--0-0--|
D|-0-0-0-0-0----0-----------------------7---7--0-0--11-11--0-0--|
   .........    .                              ...         ...

==============================================
Guitar 1:
e|---------------------------|
B|---------------------------|
G|---------------------------|
D|-0~~~-------------3-2---2--|
A|-0~~~-------5-3-5-----3----|
D|-0~~~----------------------|

Guitar 2:
e|----------------------------|
B|----------------------------|
G|----------------------------|
D|-0~~~-----------------------|
A|-0~~~-------------5---------|
D|-0~~~-------8-7-8---10-8-10-|

================================================
"I will be the only one...decide"
Guitars 1 and 2:
e|-----------------------------------------------------------------|
B|-----------------------------------------------------------------|
G|-----------------------------------------------------------3-----|
D|-3-1-----1-----0-1-0-------3-----1-----0-----3-1-----1-----3-1-0-|
A|-3-1--0--1--0--0-1-0--0-0--3--0--1--0--0--0--3-1--0--1--0--1-1-0-|
D|-3-1--0--1--0--0-1-0--0-0--3--0--1--0--0--0--3-1--0--1--0----1-0-|
        .     .         ...     .     .     .       .     .

================================================
"There will be...room that is"
Guitars 1 and 2:
e|--------------------------------------------------------------------|
B|--------------------------------------------------------------------|
G|--------------------------------------------------------------------|
D|----------1-0-----------1-0-3-1-----1-----0-1-0-------3-----1-----0-|
A|----------1-0-----------1-0-3-1--0--1--0--0-1-0--0-0--3--0--1--0--0-|
D|-0-0-0-0--1-0--0-0-0-0--1-0-3-1--0--1--0--0-1-0--0-0--3--0--1--0--0-|
   .......       .......           .     .         ...     .     .      

=========================================
"Left for compromise...break"
Guitars 1 and 2:
e|---------------------------------------------------------|
B|---------------------------------------------------------|
G|------------------3--------------------------------------|
D|----3-1-----1-----3-1-0----------------------------------|
A|-0--3-1--0--1--0--1-1-0--------------------------------5-|
D|-0--3-1--0--1--0----1-0--0-0-0-0-3-0-0-0-0-8-0-0-0-0-6---|
   .       .     .         .............................

============================================
"Away from the curse...original sin"
Guitars 1 and 2:
e|-----------------------------------------------------------------|
B|-----------------------------------------------------------------|
G|-----------------------------------------------------------3-----|
D|-3-1-----1-----0-1-0-------3-----1-----0-----3-1-----1-----3-1-0-|
A|-3-1--0--1--0--0-1-0--0-0--3--0--1--0--0--0--3-1--0--1--0--1-1-0-|
D|-3-1--0--1--0--0-1-0--0-0--3--0--1--0--0--0--3-1--0--1--0----1-0-|
        .     .         ...     .     .     .       .     .

================================================
"Turn away...hidden behind"
Guitars 1 and 2:
e|--------------------------------------------------------------------|
B|--------------------------------------------------------------------|
G|--------------------------------------------------------------------|
D|----------1-0-----------1-0-3-1-----1-----0-1-0-------3-----1-----0-|
A|----------1-0-----------1-0-3-1--0--1--0--0-1-0--0-0--3--0--1--0--0-|
D|-0-0-0-0--1-0--0-0-0-0--1-0-3-1--0--1--0--0-1-0--0-0--3--0--1--0--0-|
   .......       .......           .     .         ...     .     .      

=========================================
"A twisted grin"
Guitars 1 and 2:
e|---------------------------------------------------------|
B|---------------------------------------------------------|
G|------------------3--------------------------------------|
D|----3-1-----1-----3-1-0----------------------------------|
A|-0--3-1--0--1--0--1-1-0--------------------------------5-|
D|-0--3-1--0--1--0----1-0--0-0-0-0-3-0-0-0-0-8-0-0-0-0-6---|
   .       .     .         .............................

===========================================
"From the past we must break free"
Guitar 1:
e|-----------------------------------------------------------------|
B|-----------------------------------------------------------------|
G|-----------------------------------------------------------------|
D|---------7-------5-7-5-------------------7-------5-7-5---------5-|
A|-----8-------------------7---7-8-----8-------------------7---7---|
D|-0-0---0---0-0-0-------8---8-----0-0---0---0-0-0-------8---8-----|
   ...   .   .....       .   .     ...   .   .....       .   .

Guitar 2:
e|-----------------------------------------------------------------|
B|-----------------------------------------------------------------|
G|-----------------------------------------------------------------|
D|---------------------------------------------------------------2-|
A|-----5---8-------7-8-7---3---3-5-----5---8-------7-8-7---3---3---|
D|-0-0---0---0-0-0-------5---5-----0-0---0---0-0-0-------5---5-----|
   ...   .   .....       .   .     ...   .   .....       .   .

=========================================
"Come to terms with all that tortures me"
Guitar 1:
e|-----------------------------------------------------------------|
B|-----------------------------------------------------------------|
G|-----------------------------------------------------------------|
D|---------7-------5-7-5-------------------7-------5-7-5---------5-|
A|-----8-------------------7---7-8-----8-------------------7---7---|
D|-0-0---0---0-0-0-------8---8-----0-0---0---0-0-0-------8---8-----|
   ...   .   .....       .   .     ...   .   .....       .   .

Guitar 2:
e|-----------------------------------------------------------------|
B|-----------------------------------------------------------------|
G|-----------------------------------------------------------------|
D|---------------------------------------------------------------2-|
A|-----5---8-------7-8-7---3---3-5-----5---8-------7-8-7---3---3---|
D|-0-0---0---0-0-0-------5---5-----0-0---0---0-0-0-------5---5-----|
   ...   .   .....       .   .     ...   .   .....       .   .

============================================
Guitar 1: 0s are tremelo picked
e|----------------------------------------------------------|
B|----------------------------------------------------------|
G|----------------------------------------------------------|
D|-0--7-0-5-0-8-0-7-0-5-8-7-5-2-3-5-0-7-0-5-0--3--5--6--5-3-|
A|-0-------------------------------------------3--5--6--5-3-|
D|-0-------------------------------------------3--5--6--5-3-|
      .......................................

Guitar 2:
e|----------------------------------------------------------|
B|----------------------------------------------------------|
G|----------------------------------------------------------|
D|-0~~~~~~~~~~~~~~~~~~~~~~~~~~~~~~~~~~~~~~~~~--3--5--6--5-3-|
A|-0~~~~~~~~~~~~~~~~~~~~~~~~~~~~~~~~~~~~~~~~~--3--5--6--5-3-|
D|-0~~~~~~~~~~~~~~~~~~~~~~~~~~~~~~~~~~~~~~~~~--3--5--6--5-3-|

============================================
Chorus:
"Tragic memories invade"
Guitars 1 and 2:
e|---------------------------3--------1-----------------------------|
B|-3---------------------------3---------1------------------------3-|
G|-2------------10----9----5------3-------------------------------2-|
D|-0------------8-----8--5--------3---------7---7-----------------0-|
A|-0--0-0-0-0-0----0--------------1---------7---7--0-0--12-12--0--0-|
D|-0--0-0-0-0-0----0------------------------7---7--0-0--11-11--0--0-|
      .........    .                               ...         .

============================================
"Let the storm winds wash them all away"
Guitars 1 and 2:
e|------------------------3-------1----------------------------|
B|--------------------------3--------1-----------------------3-|
G|-----------10----9----5------3-----------------------------2-|
D|-----------8-----8--5--------3--------7--7-----------------0-|
A|-0-0-0-0-0----0--------------1--------7--7--0-0--12-12--0--0-|
D|-0-0-0-0-0----0-----------------------7--7--0-0--11-11--0--0-|
   .........    .                             ...         .

============================================
"Purified, I stand before the flames"
Guitars 1 and 2:
e|------------------------3-------1---------------------------|
B|--------------------------3--------1----------------------3-|
G|-----------10----9----5------3----------------------------2-|
D|-----------8-----8--5--------3-------7--7-----------------0-|
A|-0-0-0-0-0----0--------------1-------7--7--0-0--12-12--0--0-|
D|-0-0-0-0-0----0----------------------7--7--0-0--11-11--0--0-|
   .........    .                            ...         .

============================================
"As the ashes cover yesterday"
Guitars 1 and 2:
e|------------------------3-------1----------------------------|
B|--------------------------3--------1-----------------------3-|
G|-----------10----9----5------3-----------------------------2-|
D|-----------8-----8--5--------3--------7--7-----------------0-|
A|-0-0-0-0-0----0--------------1--------7--7--0-0--12-12--0--0-|
D|-0-0-0-0-0----0-----------------------7--7--0-0--11-11--0--0-|
   .........    .                             ...         .

===========================================
Guitars 1 and 2:
e|----------------------------------------------------------|
B|----------------------------------------------------------|
G|----------------------------------------------------------|
D|-0~~~~~~~~~~~~~~~~~~~~~~~~~~~~~~~~~~~~~~~~~--3--5--6--5-3-|
A|-0~~~~~~~~~~~~~~~~~~~~~~~~~~~~~~~~~~~~~~~~~--3--5--6--5-3-|
D|-0~~~~~~~~~~~~~~~~~~~~~~~~~~~~~~~~~~~~~~~~~--3--5--6--5-3-|

=============================================
Break:
Guitar 1:
e|-------------------------------------------------------------|
B|-------------------------------------------------------------|
G|-------------------------------------------------------------|
D|-------8-----------8---------7-----7-8-7-------7-8-7-------8-|
A|---5-6---6-5-----5---5-----5-----5-------5---5-------5---5---|
D|-5-----------5-8-------8-7-----3-----------3-----------3-----|
   .....       .....       ...   ....        ...         ...

Guitar 2: Listen for timing.
e|------------------------------------------------------|
B|------------------------------------------------------|
G|------------------------------------------------------|
D|-5-5-------5-5-------5-5-----3-3-----3-3-----------5--|
A|-5-5-------5-5-------5-5-----3-3-----3-3---------3----|
D|-5-5-------5-5-------5-5-----3-3-----3-3-------3------|
   .................................................

====================================================================
Break Continued:
Guitar 1:
e|-------------------------------------------------------------|
B|-------------------------------------------------------------|
G|-------------------------------------------------------------|
D|-------8-----------8---------7-----7-8-7-------7-8-7-------8-|
A|---5-6---6-5-----5---5-----5-----5-------5---5-------5---5---|
D|-5-----------5-8-------8-7-----3-----------3-----------3-----|
   .....       .....       ...   ....        ...         ...

Guitar 2:
e|-------------------------------------------------|
B|-------------------------------------------------|
G|-------------------------------------------------|
D|-5-5-------5-5------5-5-----3-3----3-3-------3~--|
A|-5-5-------5-5------5-5-----3-3----3-3-------3~--|
D|-5-5-------5-5------5-5-----3-3----3-3-------3~--|
   .....................................

=======================================================================
"Imprisoned by actions of the past"
Guitar 1:
e|-------------------------------------------------------------|
B|-------------------------------------------------------------|
G|-------------------------------------------------------------|
D|-------8-----------8---------7-----7-8-7-------7-8-7-------8-|
A|---5-6---6-5-----5---5-----5-----5-------5---5-------5---5---|
D|-5-----------5-8-------8-7-----3-----------3-----------3-----|
   .....       .....       ...   ....        ...         ...

Guitar 2: Listen for timing.
e|-------------------------------------|
B|-------------------------------------|
G|-------------------------------------|
D|-7~~~----------------------5~~~------|
A|-5~~~----------------------3~~~------|
D|-5~~~----------------------3~~~------|

========================================================================
"No use holding on"
Guitar 1:
e|-------------------------------------------------------------|
B|-------------------------------------------------------------|
G|-------------------------------------------------------------|
D|-------8-----------8---------7-----7-8-7-------7-8-7-------8-|
A|---5-6---6-5-----5---5-----5-----5-------5---5-------5---5---|
D|-5-----------5-8-------8-7-----3-----------3-----------3-----|
   .....       .....       ...   ....        ...         ...

Guitar 2: Listen for timing.
e|-------------------------------------|
B|-------------------------------------|
G|-------------------------------------|
D|-7~~~----------------------5~~~------|
A|-5~~~----------------------3~~~------|
D|-5~~~----------------------3~~~------|

===========================================================================
Solo:
Guitar 1: use a wah pedal for effect and as a filter.
e|---------------------------------------------------------------|
B|---------------------------------------------------------0-----|
G|-----------------------9-10--12h/14~~---10-10h12~~~~~~~~-0-----|
D|-10h12~~~~~~~~~~~---12-----------------------------------0--x--|
A|-----------------12-----------------------------------------x--|
D|---------------------------------------------------------------|
                   ..

Guitar 2: Listen for timing.
e|---------------------------------------------------|
B|---------------------------------------------------|
G|---------------------------------------------------|
D|-7----------------10-------10-----------------10\--|
A|-5----------------10-------8------------------8-\--|
D|-5----------------10-------8------------------8-\--|

=====================================================================
Guitar 1:
       1____   1______________________
e|---------------------------------------------------------------|
B|---------------------------------------------------------------|
G|---------------------------------------------------------------|
D|-10*pb---(10)b--------------10*----(10)--8-10-8--7~~~~~~~~~----|
A|-----------------------------------------------------------5-3-|
D|---------------------------------------------------------------|

Guitar 2: Listen for timing.
e|---------------------------------------------------------------|
B|---------------------------------------------------------------|
G|---------------------------------------------------------------|
D|-7----------10-----------3--5-------------------------------5--|
A|-5----------8------------3--3-------------------------------5--|
D|-5----------8------------3--3-------------------------------5--|

================================================================
Guitar 1: Very Fast. Light palm mute throughout.
e|-------------------------------------------------------------------------|
B|-------------------------------------------------------------------------|
G|-------------------------------------------------------------------------|
D|-------------------------------------------------------------------------|
A|-------------------10h11h13-------------------10h11h13----------10h11h13-|
D|-11h12h13-12h13h15----------12h13h15-12h13h15----------12h13h15----------|

Guitar 2: Let this chord ring out during the hammer ons.
e|----------|
B|----------|
G|----------|
D|-7~~~~~~~-|
A|-5~~~~~~~-|
D|-5~~~~~~~-|

==================================================
Guitar 1: Fast.
                                                       .5      .5      .5     .5       
e|---------------------------------------------------------11------11-----11-----11-------|
B|----------------------------------------------------13b-----13b-----13b----13b----13-11-|
G|-------------------------------12-14----14-16-16-17-------------------------------------|
D|-------------12-13-15-12-13-15-------15-------------------------------------------------|
A|-13-15-13-15----------------------------------------------------------------------------|
D|----------------------------------------------------------------------------------------|

Guitar 2: Listen for timing.
e|----------------------------------------|
B|----------------------------------------|
G|----------------------------------------|
D|-10---10-------------10----------10-----|
A|-10---10-------------8-----------8------|
D|-10---10-------------8-----------8------|

======================================================
Guitar 1:
e|-8h/10-10-10-10-10--10\6-6-6--8-8-8*-5-5-5--6-6-6*---------------|
B|---------------------------------------------------8-8-8-8h/10~~~|
G|-----------------------------------------------------------------|
D|-----------------------------------------------------------------|
A|-----------------------------------------------------------------|
D|-----------------------------------------------------------------|

Guitar 2: Listen for timing.
e|-------------------------------------------------------------------|
B|-------------------------------------------------------------------|
G|-------------------------------------------------------------------|
D|-7----------------------------------------------------8--10--3---5-|
A|-5----------------------------------------------------8------3-----|
D|-5----------------------------------------------------8------3-----|

=========================================================
Guitar 1:
   T         T        T   T       T             T            T          T    L
e|-8p5p3h5p3-10p5p3h5-8p6-8p5p3h5-8p5h8p5-----------------------------------/9\----|
B|---------------------------------------h8p6h8-11p6h8p6h8p6-10p8p6h8p6-11\------0-|
G|-------------------------------------------------------------------------------0-|
D|-------------------------------------------------------------------------------0-|
A|---------------------------------------------------------------------------------|
D|---------------------------------------------------------------------------------|

Guitar 2: Let this chord ring out.
e|----------|
B|----------|
G|----------|
D|-5~~~~~~--|
A|-3~~~~~~--|
D|-3~~~~~~--|

===========================================================
Guitar 2: Play this twice, which will finish at the end of the solo.
e|---------------------------------------------------------------------------------|
B|---------------------------------------------------------------------------------|
G|---------------------------------------------------3-----------------------------|
D|-3-1-----1----0-1-0------3----1----0----3-1----1---3-1-0---------1-0---------1-0-|
A|-3-1--0--1--0-0-1-0--0-0-3--0-1-0--0-0--3-1--0-1-0-1-1-0---------1-0---------1-0-|
D|-3-1--0--1--0-0-1-0--0-0-3--0-1-0--0-0--3-1--0-1-0---1-0-0-0-0-0-1-0-0-0-0-0-1-0-|
        .     .        ...    .   .    .       .   .       .......     .......      


Guitar 1:
     1_________      1________                       1______       1_____
e|-13b--------(13)-13b-------(13)-13--------------18pb-----(18)--18b~~~~~----|
B|-----------------------------------13-13-11----------------------------x---|
G|---------------------------------------------x-------------------------x-0-|
D|---------------------------------------------x---------------------------0-|
A|---------------------------------------------x---------------------------0-|
D|---------------------------------------------------------------------------|


Guitar 1: On the tapping part, tap with your pick.
      1____                     1.5______                  T        T        T  T
e|-20pb---(20)--20-19-18-------------------------------/10-22p15p10-22p15p10-22-17p15p10-|
B|-----------------------20-18h/20b-----(20)p18-20~~~~~----------------------------------|
G|---------------------------------------------------------------------------------------|
D|---------------------------------------------------------------------------------------|
A|---------------------------------------------------------------------------------------|
D|---------------------------------------------------------------------------------------|


Guitar 1: Tap with your pick.  
   T         .5____    
e|-17p15p10-17b---(17)-17p15h17p15-13-13p11p10h11-13-11p10h11p10------------------|
B|---------------------------------------------------------------13-12p10h12p9----|
G|----------------------------------------------------------------------------h10-|
D|--------------------------------------------------------------------------------|
A|--------------------------------------------------------------------------------|
D|--------------------------------------------------------------------------------|


Guitar 1: Tap with your finger.
   T    T      T          T         
e|-----------------------------------------------------------|
B|-10p8-10p8p6-10p8p6h8p6-8p6p5h6p5-6p3h6p3-0-2~~~~~~~~~~~~~~|
G|-----------------------------------------------------------|
D|-----------------------------------------------------------|
A|-----------------------------------------------------------|
D|-----------------------------------------------------------|

==============================================================
Guitars 1 and 2:
e|----------------------------------------------------------|
B|----------------------------------------------------------|
G|----------------------------------------------------------|
D|-0~~~~~~~~~~~~~~~~~~~~~~~~~~~~~~~~~~~~~~~~~--3--5--6--5-3-|
A|-0~~~~~~~~~~~~~~~~~~~~~~~~~~~~~~~~~~~~~~~~~--3--5--6--5-3-|
D|-0~~~~~~~~~~~~~~~~~~~~~~~~~~~~~~~~~~~~~~~~~--3--5--6--5-3-|

================================================================
Chorus:
"Tragic memories invade"
Guitars 1 and 2:
e|---------------------------3--------1-----------------------------|
B|-3---------------------------3---------1------------------------3-|
G|-2------------10----9----5------3-------------------------------2-|
D|-0------------8-----8--5--------3---------7---7-----------------0-|
A|-0--0-0-0-0-0----0--------------1---------7---7--0-0--12-12--0--0-|
D|-0--0-0-0-0-0----0------------------------7---7--0-0--11-11--0--0-|
      .........    .                               ...         .

============================================
"Let the storm winds wash them all away"
Guitars 1 and 2:
e|------------------------3-------1----------------------------|
B|--------------------------3--------1-----------------------3-|
G|-----------10----9----5------3-----------------------------2-|
D|-----------8-----8--5--------3--------7--7-----------------0-|
A|-0-0-0-0-0----0--------------1--------7--7--0-0--12-12--0--0-|
D|-0-0-0-0-0----0-----------------------7--7--0-0--11-11--0--0-|
   .........    .                             ...         .

============================================
"Purified, I stand before the flames"
Guitars 1 and 2:
e|------------------------3-------1---------------------------|
B|--------------------------3--------1----------------------3-|
G|-----------10----9----5------3----------------------------2-|
D|-----------8-----8--5--------3-------7--7-----------------0-|
A|-0-0-0-0-0----0--------------1-------7--7--0-0--12-12--0--0-|
D|-0-0-0-0-0----0----------------------7--7--0-0--11-11--0--0-|
   .........    .                            ...         .

============================================
"As the ashes cover yesterday"
Guitars 1 and 2:
e|------------------------3-------1----------------------------|
B|--------------------------3--------1-----------------------3-|
G|-----------10----9----5------3-----------------------------2-|
D|-----------8-----8--5--------3--------7--7-----------------0-|
A|-0-0-0-0-0----0--------------1--------7--7--0-0--12-12--0--0-|
D|-0-0-0-0-0----0-----------------------7--7--0-0--11-11--0--0-|
   .........    .                             ...         .

=============================================
Guitar 1: 0s are tremeolo picked.
e|----------------------------------------|
B|----------------------------------------|
G|----------------------------------------|
D|-0--7-0-5-0-8-0-5-8-7-5-2-3-5-0-7-0-5-0-|
A|-0--------------------------------------|
D|-0--------------------------------------|
      ...................................

Guitar 2:
e|------------------------------------------|
B|------------------------------------------|
G|------------------------------------------|
D|-0~~~~~~~~~~~~~~~~~~~~~~~~~~~~~~~~~~~~~~~-|
A|-0~~~~~~~~~~~~~~~~~~~~~~~~~~~~~~~~~~~~~~~-|
D|-0~~~~~~~~~~~~~~~~~~~~~~~~~~~~~~~~~~~~~~~-|

=============================================
Guitar 1:
e|----------------------|
B|----------------------|
G|----------------------|
D|-3--5---6--5--3---7---|
A|-3--5---6--5--3---5---|
D|-3--5---6--5--3---0---|


e|----------------------|
B|----------------------|
G|----------------------|
D|-3--5---6--5--3---0---|
A|-3--5---6--5--3---0---|
D|-3--5---6--5--3---0---|


Please Comment and Rate it.
[travis]






============
comments
We did not receive enough feedback on this tab! Please rate:
print report bad tab
1 2 3 4 5
I want to post or [tab]
guest
You may want to rate the tab now too:
select rating
Please do not post tabs as comments. Select "correction" instead!