Oops, an error
Loading. Please wait.

The Idiot Box Tab

ver2
ver2

Whole song

Interactive

More versions @911Tabs.com
2,268 views 6 this week
3 commentsread comments
1 2 3 4 5
excellent!
x 5
Autoscroll
+/-
esc
set tempo
stop
Contributor
Hey! There's an official Ultimate Guitar app which is ideal
for learning songs when you're away from computer. Get the app
WARNING: You are trying to view
                                    content from Ultimate-Guitar.com
                                    in an unauthorized application,
                                    which is prohibited.

                                    Please use an official Ultimate
                                    Guitar Tabs application for iPhone,
                                    iPad or Android to access legitimate
                                    chords, guitar, bass, and drum tabs
                                    from Ultimate-Guitar.com database.

                                    Type "ultimate guitar tabs" in Apple
                                    App Store's or Android Market's
                                    search to find the application.
Song-The Idiot Box
Band-Shadows Fall
Album-The Art Of Balance
Label-Century Media
Tabber-justbreathing87 (dand10468@yahoo.com)

Intro
Guitar 1 (0:00-0:42)

  d|---------------------------------------------------------------|
  A|---------------------------------------------------------------|
  F|---------------------------------------------------------------| x3
  C|----------------------------3----------------------------------|
  G|-2------------3-------------1--------------2----------22--22---|
  D|-0------------1----------------------------0----------00--00---|
                                                          ..  ..
  d|---------------------------------------------------------------|
  A|---------------------------------------------------------------|
  F|---------------------------------------------------------------|
  C|----------------------------3----------------------------------|
  G|-2------------3-------------1--------------2-------------------|
  D|-0------------1----------------------------0-------------------|

         (0:42-0:47)
  d|---------------------------------------------------------------|
  A|---------------------------------------------------------------|
  F|---------------------------------------------------------------|
  C|---------------------------------------------------------------|
  G|-22-------------------------------7--5--8-8-7--5-5-7--3-5------|
  D|-00---------------------------00-------------------------------|
     ..                           ..

Guitar 2 (0:00-0:42)

  d|---------------------------------------------------------------|
  A|---------------------------------------------------------------|
  F|---------------------------------------------------------------|
  C|----------------------------3----------------------------------|
  G|-2------------3-------------1--------------2----------22--22---|
  D|-0------------1----------------------------0----------00--00---|

  d|-----------------------------|
  A|-----------------------------|
  F|-----------------------------| x12
  C|-----------------------------|
  G|-----7--5--8-8-7--5-5-7--3-5-|
  D|-00--------------------------|
     ..
         (0:42-0:47)
  d|---------------------------------------------------------------|
  A|---------------------------------------------------------------|
  F|---------------------------------------------------------------|
  C|---------------------------------------------------------------|
  G|-----7--5--8-8-7--5-5-7--3-5--22-------------------------------|
  D|-00---------------------------00-------------------------------|
     ..                           ..

Verse
Guitar 1 & 2 (0:48-1:09)

  d|----------------------------------------------------------------|
  A|----------------------------------------------------------------|
  F|---------------------------------7-7-----9-9----10-10----9-9-9--| 4x
  C|----------------4-3---------------------------------------------|
  G|-2--5-4---5-4---2-1-5-4---4-5----5-5-----7-7-----8-8-----7-7-7--|
  D|-0--3-2-0-3-2-0-----3-2-0-2-3-0------0 0-----0-0-----0-0--------|
        . . . . . .     . . . . . .      . .     . .     . .


Guitar 1 & 2 (1:09-1:21)

  d|------------------------------------------------------------------|
  A|-------------6-6-6---9--9--9--------------------------------------|
  F|-------------7-7-7--10-10-10--------------------------------------|
  C|------------------------------------------------------------------|
  G|-5--7--8--7------------------5--7--8--7--222--2-2-2-222--2--2-2-2-|
  D|-----------------------------------------000--0-0-0-000--0--0-0-0-|
                                             ...  . . . ...  .  . . .
  d|------------------------------------------------------------------|
  A|-------------6-6-6---6-6-6----------------------------------------|
  F|-------------7-7-7---6-6-6----------------------------------------|
  C|------------------------------------------------------------------|
  G|-5--7--8--7------------------5--7--8--7--222--2-2-2-222--2--------|
  D|-----------------------------------------000--0-0-0-000--0--------|
                                             ...  . . . ...  .

Guitar 1 & 2 (1:22-1:42)
                          x3                               x1
  d|-----------------------------|------------------------------------|
  A|-----------------------------|------------------------------------|
  F|-----------------------------|------------------------------------|
  C|----------------4/5\4--------|------------------------------------|
  G|-2-2-2-2--2--2--2/3\2--5/7\4-|----2----3--------------------------|
  D|-0-0-0-0--0--0---------3/5\2-|-00---00---0-5-00-3-0-3-5-3-2-------|
       . . .  .  .                 ..   ..   .   ..   .
                          x3                               x1
  d|-----------------------------|------------------------------------|
  A|-----------------------------|------------------------------------|
  F|-----------------------------|------------------------------------|
  C|----------------4/5\4--------|----4----5---2--------2-------------|
  G|-2-2-2-2--2--2--2/3\2--5/7\4-|------------------5-------4---------|
  D|-0-0-0-0--0--0---------3/5\2-|-22---22---2---22---2---2-----------|
       . . .  .  .                 ..   ..   .   ..   .   .


Guitar 1 (1:43-1:46)

  d|--------------------------------------------------------------|
  A|----8-10-8----------------------------------------------------|
  F|-11--------11-9-----------------------------------------------|
  C|----------------12-11-9---------------------------------------|
  G|------------------------12-10----3--3--3--3--3----------------|
  D|---------------------------------1--1--1--1--1----------------|


Guitar 2 (1:43-1:46)

  d|--------------------------------------------------------------|
  A|--------------------------------------------------------------|
  F|-6--7-9--7-6--------------------------------------------------|
  C|-------------9--7--6------------------------------------------|
  G|----------------------9--7--5----3--3--3--3--3----------------|
  D|---------------------------------1--1--1--1--1----------------|


Verse
Guitar 1 & 2 (1:46-2:07)

  d|----------------------------------------------------------------|
  A|----------------------------------------------------------------|
  F|---------------------------------7-7-----9-9----10-10----9-9-9--| 4x
  C|----------------4-3---------------------------------------------|
  G|-2--5-4---5-4---2-1-5-4---4-5----5-5-----7-7-----8-8-----7-7-7--|
  D|-0--3-2-0-3-2-0-----3-2-0-2-3-0------0 0-----0-0-----0-0--------|
        . . . . . .     . . . . . .      . .     . .     . .


Guitar 1 & 2 (2:07-2:20)

  d|------------------------------------------------------------------|
  A|-------------6-6-6---9--9--9--------------------------------------|
  F|-------------7-7-7--10-10-10--------------------------------------|
  C|------------------------------------------------------------------|
  G|-5--7--8--7------------------5--7--8--7--222--2-2-2-222--2--2-2-2-|
  D|-----------------------------------------000--0-0-0-000--0--0-0-0-|
                                             ...  . . . ...  .  . . .
  d|------------------------------------------------------------------|
  A|-------------6-6-6---6-6-6----------------------------------------|
  F|-------------7-7-7---6-6-6----------------------------------------|
  C|------------------------------------------------------------------|
  G|-5--7--8--7------------------5--7--8--7--222--2-2-2-222--2--------|
  D|-----------------------------------------000--0-0-0-000--0--------|
                                             ...  . . . ...  .

Guitar 1 & 2 (2:20-2:38)
                          x3                               x1
  d|-----------------------------|------------------------------------|
  A|-----------------------------|------------------------------------|
  F|-----------------------------|------------------------------------|
  C|----------------4/5\4--------|------------------------------------|
  G|-2-2-2-2--2--2--2/3\2--5/7\4-|----2----3--------------------------|
  D|-0-0-0-0--0--0---------3/5\2-|-00---00---0-5-00-3-0-3-5-3-2-------|
       . . .  .  .                 ..   ..   .   ..   .
                          x3                               x1
  d|-----------------------------|
  A|-----------------------------|
  F|-----------------------------|
  C|----------------4/5\4--------|
  G|-2-2-2-2--2--2--2/3\2--5/7\4-|
  D|-0-0-0-0--0--0---------3/5\2-|
       . . .  .  .

Guitar 1 & 2 (2:39-2:59)

  d|-----------------------------|------------------------------------|
  A|-----------------------------|------------------------------------|
  F|-----------------------------|------------------------------------|
  C|----4----5---2--------2------|----3---4---0---3---4---0-----------|
  G|------------------5-------4--|----------------------------1-------|
  D|-22---22---2---22---2---2----|-11---1---1---1---1---1---1---------|
     ..   ..   .   ..   .   .      ..   .   .   .   .   .   .

  d|-----------------------------|------------------------------------|
  A|-----------------------------|------------------------------------|
  F|-----------------------------|------------------------------------|
  C|----4----5---2--------2------|---3T-------------------------------|
  G|------------------5-------4--|------4T-1T-3T-4T-3T----------------|
  D|-22---22---2---22---2---2----|1T-------------------3T-------------|
     ..   ..   .   ..   .   .

  d|-----------------------------|------------------------------------|
  A|-----------------------------|------------------------------------|
  F|-----------------------------|------------------------------------|
  C|----4----5---2--------2------|----3---4---0---3---4---0-----------|
  G|------------------5-------4--|----------------------------1-------|
  D|-22---22---2---22---2---2----|-11---1---1---1---1---1---1---------|
     ..   ..   .   ..   .   .      ..   .   .   .   .   .   .

  d|-----------------------------|------------------------------------|
  A|-----------------------------|------------------------------------|
  F|-----------------------------|------------------------------------|
  C|----4----5---2--------2------|----3---4-------3---4---------------|
  G|------------------5-------4--|------------4-----------4-----------|
  D|-22---22---2---22---2---2----|111---1---1---1---1---1-------------|
     ..   ..   .   ..   .   .     ...   .   .   .   .   .


Guitar 1 & 2 (2:59-3:20)
                          x3                               x1
  d|-----------------------------|------------------------------------|
  A|-----------------------------|------------------------------------|
  F|-----------------------------|------------------------------------| 2x
  C|-----------------------------|---------------------4--------------|
  G|-3/4\3--3-3--3/4\3---3-3-3-3-|-3/4\3---3-3-3-3--2--2--------------|
  D|-1/2\1--1-1--1/2\1---1-1-1-1-|-1/2\1---1-1-1-1--0-----------------|
            . .          . . . .           . . . .


Solo
Guitar 1 (3:21-3:41)

  d|-------15-19----15-19----15-20----15-19----15-19------------------|
  A|---/17-------17-------17-------17-------17------------------------|
  F|------------------------------------------------------------------|
  C|------------------------------------------------------------------|
  G|------------------------------------------------------------------|
  D|------------------------------------------------------------------|

  d|------17-20----17-20----17-22----17-20----17-20-------------------|
  A|---18-------18-------18-------18-------18-------------------------|
  F|------------------------------------------------------------------|
  C|------------------------------------------------------------------|
  G|------------------------------------------------------------------|
  D|------------------------------------------------------------------|

              (Tremelo picking)
  d|-----------15-18-15----15---------------15-20-15----15------------|
  A|--15-17-18----------18----18---15-17-18----------18----18---------|
  F|------------------------------------------------------------------|
  C|------------------------------------------------------------------|
  G|------------------------------------------------------------------|
  D|------------------------------------------------------------------|

  d|----------21-19-17------------------------------------------------|
  A|-17-19-20----------21-19-17---------------------------------------|
  F|----------------------------21-19-17----------21-17----19~--------|
  C|-------------------------------------17-19-21-------15------------|
  G|------------------------------------------------------------------|
  D|------------------------------------------------------------------|
              (End Tremelo picking)


  d|----------------------15/19\15-15---------------------------------|
  A|-------------------17-------------17----19------------------------|
  F|----------------16-------------------16----16---------------------|
  C|-14-------14-17---------------------------------------------------|
  G|-------14---------------------------------------------------------|
  D|----15------------------------------------------------------------|

  d|----------------------17-20p17----20b22---------------------------|
  A|----------------18-18----------18---------------------------------|
  F|------------------------------------------------------------------|
  C|-15-------15-19---------------------------------------------------|
  G|-------15---------------------------------------------------------|
  D|----17------------------------------------------------------------|

  d|------------------------------------------------------------------|
  A|-13b15-10h13p10-13p10---------------------------------------------|
  F|----------------------12~--------??????????-----------------------|
  C|------------------------------------------------------------------|
  G|------------------------------------------------------------------|
  D|------------------------------------------------------------------|

Guitar 2 (3:31-3:41)

  d|-----------------------------------------------------------------|
  A|-----------------------------------------------------------------|
  F|-----------------------------------------------------------------|
  C|----------------------------3------------------------------------|
  G|-2------------3-------------1--------------2----------22--22-----|
  D|-0------------1----------------------------0----------00--00-----|
                                                          ..  ..

  d|-----------------------------------------------------------------|
  A|-----------------------------------------------------------------|
  F|-----------------------------------------------------------------|
  C|----------------------------3------------------------------------|
  G|-2------------3-------------1--------------2-2-2-2-2-------------|
  D|-0------------1----------------------------0-0-0-0-0-------------|
                                               . . . . .

Guitar 1 (3:41-3:55)

  d|------------------------------------------------------------------|
  A|----------------------8h10-10b13r10p8-10--------------------------|
  F|-7b9r7p5---5-7~---7/9---------------------------------------------|
  C|---------7--------------------------------------------------------|
  G|------------------------------------------------------------------|
  D|------------------------------------------------------------------|

  d|--------------10-11p10----10--------------------------------------|
  A|-10-12-13--13----------13----10---------INCOMPLETE----------------|
  F|------------------------------------------------------------------|
  C|------------------------------------------------------------------|
  G|------------------------------------------------------------------|
  D|------------------------------------------------------------------|

*note* I'm not very good at tabbing solos, someone please e-mail me
       if they figure out the rest of this solo.

Guitar 2 (3:41-3:55)

  d|------------------------------------------------------------------|
  A|------------------------------------------------------------------|
  F|------------------------------------------------------------------|
  C|------------------------------------------------------------------|
  G|-2----3---8-7-5-3--2-2-2-2-2-2-----2----3---8-7-5-3---3-5---------|
  D|-0--0-1-0-6-5-3-1--0-0-0-0-0-0-----0--0-1-0-6-5-3-1-0-1-3---------|
        .   .          . . . . . .        .   .

  d|------------------------------------------------------------------|
  A|------------------------------------------------------------------|
  F|------------------------------------------------------------------|
  C|-----------------------------------5-5-5-5-5-5-5-5-7--------------|
  G|-2----3---8-7-5-3--2-2-2-2-2-2-----3-3-3-3-3-3-3-3-5--------------|
  D|-0--0-1-0-6-5-3-1--0-0-0-0-0-0------------------------------------|
        .   .          . . . . . .     . . . . . . . .

Guitar 1 (3:55-4:16)

  d|------------------------------------------------------------------|
  A|------------------------------------------------------------------|
  F|------------------------------------------------------------------|
  C|--------------------------------3-----------------5-3-775-335-2-3-|
  G|-5-4-2------------3-------------1---------------------------------|
  D|-3-2-0------------1----------------------------00-----------------|
     . .                                           ..

  d|------------------------------------------------------------------|
  A|------------------------------------------------------------------|
  F|------------------------------------------------------------------|
  C|--------------------------------3-----------------5-3-775-335-2-3-|
  G|-----2------------3-------------1---------------------------------|
  D|-----0------------1----------------------------00-----------------|
                                                   ..

Guitar 2 (3:55-4:16)

  d|------------------------------------------------------------------|
  A|------------------------------------------------------------------|
  F|------------------------------------------------------------------| x8
  C|------------------------------------------------------------------|
  G|--7--5--8-8-7--5-5-7--3-5-----------------------------------------|
  D|---------------------------00-------------------------------------|
                               ..

Guitar 1 & 2 (4:16-4:28)

  d|------------------------------------------------------------------|
  A|------------------------------------------------------------------|
  F|------------------------------------------------------------------|
  C|------------------------------------------------------------------|
  G|-22--22--222-2-2-22---------22--22--222-2-2-22--------------------|
  D|-00--00--000-0-0-00---------00--00--000-0-0-00--------------------|
     ..  ..  ... . . ..         ..  ..  ... . . ..

  d|------------------------------------------------------------------|
  A|------------------------------------------------------------------|
  F|------------------------------------------------------------------|
  C|------------------------------------------------------------------|
  G|-22--22--222-2-2-22---------22--22--2-2-2-2-2-2-------------------|
  D|-00--00--000-0-0-00---------00--00--0-0-0-0-0-0-------------------|
     ..  ..  ... . . ..         ..  ..  . . . . . .
comments
print report bad tab
3 comments total.
0 reply
guitarman47 wrote on March 16 2006, 02:52 pm

damn good tab

0 reply
Nor'Easterbass wrote on May 16 2006, 11:33 am

i second that. the solo was actually right, except i'm disappointed that you left out the shred section in the middle. it's really not that hard, compared to tabbing the rest of the thing. oh, well, i figured it out fine. good job.

0 reply
sc_stanger wrote on February 27 2008, 08:11 pm

i just wish all the palm muting was put in...it'd make it nicer to read but great none the less :)

I want to post or [tab]
guest
You may want to rate the tab now too:
select rating
Please do not post tabs as comments. Select "correction" instead!