Oops, an error
Loading. Please wait.

The Light That Blinds Tab

ver5
ver5
More versions @911Tabs.com
20,115 views 1 this week
4 commentsread comments
1 2 3 4 5
accurate
x 8
Autoscroll
+/-
esc
set tempo
stop
Contributor
Hey! There's an official Ultimate Guitar app which is ideal
for learning songs when you're away from computer. Get the app
WARNING: You are trying to view
                                    content from Ultimate-Guitar.com
                                    in an unauthorized application,
                                    which is prohibited.

                                    Please use an official Ultimate
                                    Guitar Tabs application for iPhone,
                                    iPad or Android to access legitimate
                                    chords, guitar, bass, and drum tabs
                                    from Ultimate-Guitar.com database.

                                    Type "ultimate guitar tabs" in Apple
                                    App Store's or Android Market's
                                    search to find the application.
Shadows Fall
Song: The Light That Blinds
Album: The War Within

Any questions mail me at johann-felix@live.com

Tuning: D standard (D G C F A D) from low to high


Intro
Guitar 1
D|-3-----------4-------4-------6-------------------|
A|----4-----4-----4-------3h4-----6----------------|
F|-------5-----------5----3----------8--7-----5--4-|
C|-------------6---------------------------5-------| (x2)
G|-3-----------------------------------------------|
D|-------------------------------------------------|

Guitar 2
D|-------------------------------------------------|
A|-------------------------------------------------|
F|-------------------------------------------------|
C|-------------------------------------------------| (x2)
G|-------------------------------------------------|
D|-------------------------------------------------|

Guitar 1
D|-3-----------4-------4-------6-------------------|
A|----4-----4-----4-------3h4-----6----------------|
F|-------5-----------5----3----------8--7-----5--4-|
C|-------------6---------------------------5-------| (x2)
G|-3-----------------------------------------------|
D|-------------------------------------------------|

Guitar 2
D|-------------------------------------------------|
A|-------------------------------------------------|
F|-/3=======5--6=====5h6-5------------/10--9--6--5-|
C|--------------------------7========--------------| (x2)
G|-------------------------------------------------|
D|-------------------------------------------------|

Guitar 1
D|-3-----------4-------4-------6-------------------|
A|----4-----4-----4-------3h4-----6----------------|
F|-------5-----------5----3----------8--7-----5--4-|
C|-------------6---------------------------5-------| (x2)
G|-3-----------------------------------------------|
D|-------------------------------------------------|

Guitar 2
D|-------------------------------------------------|
A|--4=======6--8=====6h8-6------------/11--9--8--6-|
F|-/5=======7--8=====7/8-7--7========-/12-11--8--7-|
C|--------------------------8========--------------|
G|-------------------------------------------------|
D|-------------------------------------------------|

Guitar 1
D|-3-----------4-------4-------6-------------------------------|
A|----4-----4-----4-------3h4-----6-----------------4=========-|
F|-------5-----------5----3----------8--7-----5--4--5=========-|
C|-----------------------------------------5-------------------|
G|-3-----------6-----------------------------------------------|
D|-------------------------------------------------------------|

Guitar 2
D|-------------------------------------------------------------|
A|-/4=======6--8=====6h8-6------------/11--9--8--6--4=========-|
F|-/5=======7--8=====7/8-7--7========-/12-11--8--7--5=========-|
C|--------------------------8========--------------------------|
G|-------------------------------------------------------------|
D|-------------------------------------------------------------|

Guitar 1  (Played really fast)
D|----------------------------------15-15-15-15-19-19-19-19-15-15-15-15----------------|
A|-----------------------17-17-17-17-----------------------------------17-17-----------|
F|------------16-16-16-16---------------------------------------------------16-16------|
C|-14-14-14-14-------------------------------------------------------------------17-17-| (x2)
G|-------------------------------------------------------------------------------------|
D|-------------------------------------------------------------------------------------|

Guitar 2
D|-------------------------------------------------------------------------------------|
A|-------------------------------------------------------------------------------------|
F|-------------------------------------------------------------------------------------|
C|-2-----------------------------------------------------------------------------------|(x2)
G|-2-----------------------------------------------------------------------------------|
D|-0-----------------------------------------------------------------------------------|

Guitar 1  (Played really fast)
D|----------------------------------15-15-15-15-19-19-19-19-15-15-15-15-17-17-17-17----|
A|-----------------------17-17-17-17---------------------------------------------------|
F|------------16-16-16-16--------------------------------------------------------------|
C|-14-14-14-14-------------------------------------------------------------------------|
G|-------------------------------------------------------------------------------------|
D|-------------------------------------------------------------------------------------|

Guitar 2
D|-----------------------------------------------------------------------------------|
A|-----------------------------------------------------------------------------------|
F|-----------------------------------------------------------------------------------|
C|-2---------------------------------------------------------------------------------|
G|-2---------------------------------------------------------------------------------|
D|-0---------------------------------------------------------------------------------|

Guitar 1  (Played really fast)
D|-19-19-19-19-20-20-20-20-19-19-19-19-17-17-17-17---------------------|
A|------------------------------------------------20-20-20-20-19~~~~~\-|
F|---------------------------------------------------------------------|
C|---------------------------------------------------------------------|
G|---------------------------------------------------------------------|
D|---------------------------------------------------------------------|

Guitar 2
D|---------------------------------------------------------------------|
A|---------------------------------------------------------------------|
F|--------------------------------------------11======================-|
C|------------------------------------------------------9=============-|
G|--------------------------------------------------------------9=====-|
D|---------------------------------------------------------------------|

Guitar 1  (Played really fast)
D|----------------------------------15-15-15-15-19-19-19-19-15-15-15-15-----------------|
A|-----------------------17-17-17-17-----------------------------------17-17------------|
F|------------16-16-16-16---------------------------------------------------16-16-------|
C|-14-14-14-14-------------------------------------------------------------------17-17--| (x2)
G|--------------------------------------------------------------------------------------|
D|--------------------------------------------------------------------------------------|

Guitar 2
D|-------------------------------------------------------------------------------------|
A|-------------------------------------------------------------------------------------|
F|-------------------------------------------------------------------------------------|
C|-2-----------------------------------------------------------------------------------|(x2)
G|-2-----------------------------------------------------------------------------------|
D|-0-----------------------------------------------------------------------------------|

Guitar 1  (Played really fast)
D|----------------------------------15-15-15-15-19-19-19-19-15-15-15-15-17-17-17-17----|
A|-----------------------17-17-17-17---------------------------------------------------|
F|------------16-16-16-16--------------------------------------------------------------|
C|-14-14-14-14-------------------------------------------------------------------------|
G|-------------------------------------------------------------------------------------|
D|-------------------------------------------------------------------------------------|

Guitar 2
D|-----------------------------------------------------------------------------------|
A|-----------------------------------------------------------------------------------|
F|-----------------------------------------------------------------------------------|
C|-2---------------------------------------------------------------------------------|
G|-2---------------------------------------------------------------------------------|
D|-0---------------------------------------------------------------------------------|

Guitar 1  (Played really fast)
D|-19-19-19-19-20-20-20-20-19-19-19-19-17-17-17-17---------------------|
A|------------------------------------------------20-20-20-20-19~~~~~\-|
F|---------------------------------------------------------------------|
C|---------------------------------------------------------------------|
G|---------------------------------------------------------------------|
D|---------------------------------------------------------------------|

Guitar 2
D|---------------------------------------------------------------------|
A|---------------------------------------------------------------------|
F|---------------------------------------------------------------------|
C|----------------------------------------------------------------2|---|
G|----------------------------------------------------------------2|---|
D|----------------------------------------------------------------0|---|

Guitar 1
D|------------------------------------------------------------------|
A|------------------------------------------------------------------|
F|------------------------------------------------------------------|
C|---------5555----6666---------------------------------------------| (x2)
G|-----------------------------5555----33333333----333366665555-----|
D|-88886666----8888----44446666----1111--------3333------------6666-|

Guitar 2
D|------------------------------------------------------------------|
A|------------------------------------------------------------------|
F|------------------------------------------------------------------|
C|------------------------------------------------------------------|
G|------------------------------------------------------------------|
D|------------------------------------------------------------------|

Guitar 1
D|------------------------------------------------------------------|
A|------------------------------------------------------------------|
F|------------------------------------------------------------------|
C|---------5555----6666---------------------------------------------| (x2)
G|-----------------------------5555----33333333----333366665555-----|
D|-88886666----8888----44446666----1111--------3333------------6666-|

Guitar 2
D|------------------------------------------------------------------|
A|------------------------------------------------------------------|
F|-----------------5555---------------------------------------------|
C|---------8888----------------3333---------------------------------| (x2)
G|-66665555----6666----33335555--------33333333----333366665555-----|
D|---------------------------------4444--------4444------------6666-|

Both guitars
D|----------------------------|
A|----------------------------|
F|----------------------------|
C|-5-------5-------5------5-6-|
G|-3-------3-------3------5-6-|
D|---3-3-3---3-3-3---3-3--3-4-|
PM:  . . .   . . .   . .

Verse

Both Guitars
D|-------------------------------------------------------------------|
A|-------------------------------------------------------------------|
F|-------------------------------------------------------------------|
C|-----------------------------------------------------------2-4-5~\-|
G|---------------------------------8-----7-----5\--------3-2---------|
D|-3000005000007000300000500000700---000---000----3-2-0--------------|
PM: ..... ..... ... ..... ..... ..   ...   ...    . . .

Both Guitars
D|---------------------------------------------------------------|
A|----------------------------------------------------------9h10-|
F|----------------------------------------------------------9----|
C|--------------------------------------9---9h10---7--9--7-------|
G|-------------------------------------10--10------8--8--8-------|
D|-30000050000070003000005-0000000-0-0-----------0---------------|
PM: ..... ..... ... .....  ....... . .           .

Both guitars
D|-------------------------------------------------------------------|
A|-------------------------------------------------------------------|
F|-------------------------------------------------------------------|
C|-----------------------------------------------------------2-4-5~\-|
G|---------------------------------8-----7-----5\--------3-2---------|
D|-3000005000007000300000500000700---000---000----3-2-0--------------|
PM: ..... ..... ... ..... ..... ..   ...   ...    . . .

Both guitars
D|---------------------------------------------------------------|
A|----------------------------------------------------------9h10-|
F|----------------------------------------------------------9----|
C|--------------------------------------9---9h10---7--9--7-------|
G|-------------------------------------10--10------8--8--8-------|
D|-30000050000070003000005-0000000-0-0-----------0---------------|
PM: ..... ..... ... .....  ....... . .           .

Both guitars
D|--------------------------------------------------------------|
A|--------------------------9h10--------------------------------|
F|--------------------------9-----------------------------------|
C|------9---9h10---7--9--7-------------9---9h10---7--9--7--6===-|
G|-----10--10------8--8--8------------10--10------8--8--8--7===-|
D|-0-0-----------0----------------0-0-----------0---------------|
PM:. .           .                . .           .

Both guitars
D|-----------------------------------------------------------|
A|--------------------------9h10-----------------------------|
F|--------------------------9--------------------------------|
C|------9---9h10---7--9--7-------------9---9h10---7|--9|--7|-|
G|-----10--10------8--8--8------------10--10------8|--8|--8|-|
D|-0-0-----------0----------------0-0-----------0------------|
PM:. .           .                . .           .

Chorus

D|-----------------------------------------------------------------------------|
A|-------------------------------------------3------------3--------------------|
F|-5-----------------7-----9==========-----5------------5----------------------|
C|-5-----2==========-7-----9==========---5------5-----5------5--7=============-|
G|-3-----2==========-5--5--7==========-3-----------5------------7=============-|
D|----0--0==========--------------------------------------------5=============-|
PM:   .                 .

Both guitars
D|--------------------------------------------------------------------------------|
A|------------------------------------------3------------3------------------------|
F|-5--------------------7-----9======-----5------------5-----------------------5*-|
C|-5-----2======--------7-----9======---5------5-----5------5--7=====-------------|
G|-3-----2======--------5--5--7======-3-----------5------------7=====----5\3-0----|
D|----0--0======0-0-0-0----------------------------------------5=====5-5----------|
PM:   .         . . . .    .                                         . .

Verse 2

Both Guitars
D|-------------------------------------------------------------------|
A|-------------------------------------------------------------------|
F|-------------------------------------------------------------------|
C|-----------------------------------------------------------2-4-5~\-|
G|---------------------------------8-----7-----5\--------3-2---------|
D|-3000005000007000300000500000700---000---000----3-2-0--------------|
PM: ..... ..... ... ..... ..... ..   ...   ...    . . .

Both Guitars
D|---------------------------------------------------------------|
A|----------------------------------------------------------9h10-|
F|----------------------------------------------------------9----|
C|--------------------------------------9---9h10---7--9--7-------|
G|-------------------------------------10--10------8--8--8-------|
D|-30000050000070003000005-0000000-0-0-----------0---------------|
PM: ..... ..... ... .....  ....... . .           .

Both guitars
D|-------------------------------------------------------------------|
A|-------------------------------------------------------------------|
F|-------------------------------------------------------------------|
C|-----------------------------------------------------------2-4-5~\-|
G|---------------------------------8-----7-----5\--------3-2---------|
D|-3000005000007000300000500000700---000---000----3-2-0--------------|
PM: ..... ..... ... ..... ..... ..   ...   ...    . . .

Both guitars
D|---------------------------------------------------------------|
A|----------------------------------------------------------9h10-|
F|----------------------------------------------------------9----|
C|--------------------------------------9---9h10---7--9--7-------|
G|-------------------------------------10--10------8--8--8-------|
D|-30000050000070003000005-0000000-0-0-----------0---------------|
PM: ..... ..... ... .....  ....... . .           .

Both guitars
D|--------------------------------------------------------------|
A|--------------------------9h10--------------------------------|
F|--------------------------9-----------------------------------|
C|------9---9h10---7--9--7-------------9---9h10---7--9--7--6===-|
G|-----10--10------8--8--8------------10--10------8--8--8--7===-|
D|-0-0-----------0----------------0-0-----------0---------------|
PM:. .           .                . .           .

Guitar 1
D|-----------------------------------------------------------|
A|--------------------------9h10-----------------------------|
F|--------------------------9--------------------------------|
C|------9---9h10---7--9--7-------------9---9h10---7|--9|--7|-|
G|-----10--10------8--8--8------------10--10------8|--8|--8|-|
D|-0-0-----------0----------------0-0-----------0------------|
PM:. .           .                . .           .

Chorus 2

Both Guitars
D|------------------------------------------------------------------------------|
A|-------------------------------------------3------------3---------------------|
F|-5-----------------7-----9==========-----5------------5-----------------------|
C|-5-----2==========-7-----9==========---5------5-----5------5--7==============-|
G|-3-----2==========-5--5--7==========-3-----------5------------7==============-|
D|----0--0==========--------------------------------------------5==============-|
PM:   .                 .
Both guitars
D|----------------------------------------------------------------------------|
A|----------------------------------------------3------------3----------------|
F|-5----------------------7-----9========-----5------------5------------------|
C|-5-----2========--------7-----9========---5------5-----5------5--7=========-|
G|-3-----2========--------5--5--7========-3-----------5------------7=========-|
D|----0--0========0-0-0-0------------------------------------------5=========-|
PM:   .           . . . .    .


Both guitars
D|----------------|
A|----------------|
F|----------------|
C|-----------5===-|
G|-----------5===-|
D|-0-0-0-0-0-3===-|
PM:. . . . .


Bridge

Both guitars
D|---------------------------------------------------------------|
A|---------------------------------------------------------------|
F|-----------------10--9----------------------------5====/-8====-|
C|--9--8------------x--x------------9--8------------7====/10====-|  (x4)
G|--9--8------------8--7------------9--8------------7====/10====-|
D|--7--6--00000000--------00000000--7--6--00000000--5====/-8====-|
PM:       ........       .........       .........

Guitar 1
D|-----------------------------------------|
A|--------------3h4---3-4p3------------6p4-|
F|------------5-----x-------5-3------------|
C|----------5------------------------------|
G|--------3--------------------------------|
D|-----------------------------------------|

Guitar 2
D|-----------------------------------------|
A|-----------------------------------------|
F|-5===========================3==========-|
C|-5===========================3==========-|
G|-3===========================1==========-|
D|-----------------------------------------|


Guitar 1
D|--------------------------------------------------|
A|------------------3h4---3-4p3---------------------|
F|----------------5-----x-------5----------4=======-|
C|--------------5-----------------6=======----------|
G|------------3-------------------------------------|
D|--------------------------------------------------|

Guitar 2
D|--------------------------------------------------|
A|--------------------------------------------------|
F|------3========================----------4=======-|
C|------3========================-6=======-4=======-|
G|------1========================-6=======-2=======-|
D|-3-3----------------------------4=======----------|
PM:. .

Solo (with wah)

Guitar 1
D|----------------------------------------------------------------|
A|---------------------------------------------------------15p13--|
F|-/5~~~~~~~~~\--/12~~~~~~~~~\--/7--8--8b10--8--7-----------------|
C|-------------------------------------------------5-6~~~~--------|
G|----------------------------------------------------------------|
D|----------------------------------------------------------------|

Guitar 2
D|----------------------------------------------------------------|
A|------8===--8===------8===--8===-----8===--8===-----6===--6===--|
F|--------8=----8=--------8=----8=-------8=----8=-------5=----5=--|
C|-10======-10----10-9=====-9-----9-8=====-8-----8-7=====-7-----7-|
G|----------------------------------------------------------------|
D|----------------------------------------------------------------|


Guitar 1
D|--------11-------11-------11-11--------------13b15==13b15r------|
A|--14b16===14b16=====14b16======--------15p13---------------15===|
F|-------------------------------12-13~~--------------------------|
C|----------------------------------------------------------------|
G|----------------------------------------------------------------|
D|----------------------------------------------------------------|

Guitar 2
D|----------------------------------------------------------------|
A|------8===--8===------8===--8===-----8===--8===-----6===--6===--|
F|--------8=----8=--------8=----8=-------8=----8=-------5=----5=--|
C|-10======-10----10-9=====-9-----9-8=====-8-----8-7=====-7-----7-|
G|----------------------------------------------------------------|
D|----------------------------------------------------------------|


Guitar 1
D|-------------------------------------------------|
A|-13======13===13===-15======15===15===-16=====16-|
F|-15b17==‘17==‘17-15-17b19==‘19==‘19-17-18b20=‘20-|
C|-------------------------------------------------|
G|-------------------------------------------------|
D|-------------------------------------------------|

Guitar 2
D|-------------------------------------------------|
A|-------------------------------------------------|
F|-5=====5=====5======-7=====7=====7======---------|
C|-5=====5=====5======-7=====7=====7======-3=====--|
G|-3=====3=====3======-5=====5=====5======-3=====--|
D|-----------------------------------------1=====--|


Guitar 1
D|-------------------------------------|
A|-18p16----16----------16-18-18b20~~~-|
F|-------17----17-15-17----------------|
C|-------------------------------------|
G|-------------------------------------|
D|-------------------------------------|

Guitar 2
D|-------------------------------------|
A|-------------------------------------|
F|-------------------------------------|
C|-3=====3======-5=====5=====5=======--|
G|-3=====3======-5=====5=====5=======--|
D|-1=====1======-3=====3=====3=======--|

Couldn't figure out the fast part and the sweeping in the end but got the part in 
but didnt bother the rythm


Guitar 1
D|-------------------------------------------------------|
A|-------------------------------------------------------|
F|-------------------------------------------------------|
C|-10-10-12-13-12h13p12-10-9--10-10-12-13-12h13p12-10-9--|
G|-------------------------------------------------------|
D|-------------------------------------------------------|

Guitar 1
D|------------------------------------------|
A|------------------------------------------|
F|----------------------------13-12-10-12---|
C|-10-10-12-13-12h13p12-10-9----------------|
G|------------------------------------------|
D|------------------------------------------|

Guitar 1
D|--------------------------------------------------------|
A|-13-13-15-16-15h16p15-13-12--13-13-15-16-15h16p15-13-10-|
F|--------------------------------------------------------|
C|--------------------------------------------------------|
G|--------------------------------------------------------|
D|--------------------------------------------------------|


Now the part after the solo

Both guitars
D|------------------------------------------------------------|
A|------------------------------------------------------------|
F|-9=====----12==----7==----7==-9=====------------------------|
C|-9=====----12==----7==----7==-9=====------------------------|
G|-7=====----10==----5==----5==-7=====------------------------|
D|-------0-0-----0-0----0-0-----------0-0-0-0-000-0-0-0-0-0-0-|
PM:      . .     . .    . .           . . . . ... . . . . . .

Both guitars
D|----------------------------------------------------------|
A|----------------------------------------------------------|
F|-9=====----12==----7==----7==-9=====----------------------|
C|-9=====----12==----7==----7==-9=====----------------------|
G|-7=====----10==----5==----5==-7=====------5-7-5-----------|
D|-------0-0-----0-0----0-0-----------0-0-0-------6-3-5-3~~-|
PM:      . .     . .    . .           . . .

Both guitars
D|------------------------------------------------------------|
A|------------------------------------------------------------|
F|-9=====----12==----7==----7==-9=====------------------------|
C|-9=====----12==----7==----7==-9=====------------------------|
G|-7=====----10==----5==----5==-7=====------------------------|
D|-------0-0-----0-0----0-0-----------0-0-0-0-000-0-0-0-0-0-0-|
PM:      . .     . .    . .           . . . . ... . . . . . .

Both guitars
D|------------------------------------------|
A|------------------------------------------|
F|-9=====----12==----7==----7==-9=====------|
C|-9=====----12==----7==----7==-9=====------|
G|-7=====----10==----5==----5==-7=====------|
D|-------0-0-----0-0----0-0-----------0-0-0-|
PM:      . .     . .    . .           . . .

Both guitars
D|--------------------------------------------------------------------------------|
A|---------------------------------------------------------------------8--8--8~~~-|
F|---------------------------------------------------------------------9--9--9~~~-|
C|---------------------------------------------------------------------9--9--9~~~-|
G|-5-7-5-----------5-7-5-----------5-7-5-----------5-7-5--------------------------|
D|-------6-3-5-3==-------6-3-5-6-0-------6-3-5-3==-------6-3-5-6-3-0==------------|

Chorus 3

Both Guitars
D|------------------------------------------------------------------------------|
A|-------------------------------------------3------------3---------------------|
F|-5-----------------7-----9==========-----5------------5-----------------------|
C|-5-----2==========-7-----9==========---5------5-----5------5--7==============-|
G|-3-----2==========-5--5--7==========-3-----------5------------7==============-|
D|----0--0==========--------------------------------------------5==============-|
PM:   .                 .

Both guitars
D|----------------------------------------------------------------------------|
A|----------------------------------------------3------------3----------------|
F|-5----------------------7-----9========-----5------------5------------------|
C|-5-----2========--------7-----9========---5------5-----5------5--7=========-|
G|-3-----2========--------5--5--7========-3-----------5------------7=========-|
D|----0--0========0-0-0-0------------------------------------------5=========-|
PM:   .           . . . .    .


Both guitars
D|----------------|
A|----------------|
F|----------------|
C|-----------5===-|
G|-----------5===-|
D|-0-0-0-0-0-3===-|
PM:. . . . .


Outro

Both guitars
D|-----------------------------------------------------------------|
A|-----------------------------------------------------------------|
F|-----------------------------------------------------------------|
C|-----------------------------------------------------------------|
G|-5-7-5-----------5-7-5-----------5-7-5-----------5-7-5-----------|
D|-------6-3-5-3==-------6-3-5-6-0-------6-3-5-3==-------6-3-5-6-0-|

Guitar 1
D|--------------------------------------------------------------------|
A|--------------------------------------------------------------------|
F|--------------------------------------------------------------------|
C|-----------------------------------------------------------------2--|
G|-5-7-5-----------5-7-5-----------5-7-5-----------5-7-5-----------2--|
D|-------6-3-5-3==-------6-3-5-6-0-------6-3-5-3==-------6-3-5-6-3-0--|

Guitar 2
D|--------------------------------------------------------------------|
A|--------------------------------------------------------------------|
F|-7-9-7-----------7-9-7-----------7-9-7-----------7-9-7--------------|
C|-------8---7----------8----7-8---------8---7-----------8---7-8------|
G|--------10--10==--------10-----7--------10--10==--------10----10-7--|
D|--------------------------------------------------------------------|


Key:
h - hammer-on
p - pull-off
/ - slide up
\ - slide down
~ - vibrato
= - hold note/let ring
* - pinched harmonic
| - mute note quickly after hitting it
x - mute string
‚ - hold bend

Enjoy!
comments
print report bad tab
4 comments total. Showing first comments.
0 reply
god of iceland wrote on May 18 2009, 03:30 pm

few errors which I found afterwards but you can probably correct them, fx at some tablatures a (x2) marking is missing

+3 reply
KMBroom wrote on May 19 2009, 09:12 am

in the acoustic intro i find it easier to play instead of doing this:

D|-3-----------4-------4-------6-------------------|
A|----4-----4-----4-------3h4-----6----------------|
F|-------5-----------5----3----------8--7-----5--4-|
C|-------------6---------------------------5-------|
G|-3-----------------------------------------------|
D|-------------------------------------------------|

to play this

D|-3-----------4-------4-------6-------------------|
A|----4-----4-----4---------------6----------------|
F|-------5-----------5----7h8--------8--7-----5--4-|
C|-------------6----------8----------------5-------| (x2)
G|-3-----------------------------------------------|

Great tab tho
D|-------------------------------------------------|

+1 reply
Stevo_Stevo wrote on November 10 2009, 07:28 pm

The only thing i don't like about this song, is the solo could've been so much better.

I want to post or [tab]
guest
You may want to rate the tab now too:
select rating
Please do not post tabs as comments. Select "correction" instead!