Oops, an error
Loading. Please wait.

The Power Of I And I Tab

ver3
ver3

Intro

Solo

Whole song

Interactive

More versions @911Tabs.com
4,100 views 1 this week
7 commentsread comments
1 2 3 4 5
excellent!
x 8
Autoscroll
+/-
esc
set tempo
stop
Contributor
Hey! There's an official Ultimate Guitar app which is ideal
for learning songs when you're away from computer. Get the app
WARNING: You are trying to view
                                    content from Ultimate-Guitar.com
                                    in an unauthorized application,
                                    which is prohibited.

                                    Please use an official Ultimate
                                    Guitar Tabs application for iPhone,
                                    iPad or Android to access legitimate
                                    chords, guitar, bass, and drum tabs
                                    from Ultimate-Guitar.com database.

                                    Type "ultimate guitar tabs" in Apple
                                    App Store's or Android Market's
                                    search to find the application.
Artist: Shadows Fall
Album: The War Within
Song: The Power of I and I
Tuning: C-G-C-F-A-D

. = palm mute
^ = bend/ - slide up
\ = slide down
~ = let ring
p = pull off
h = hammer-on
* = natural harmonic


Intro (both guitars)
-----------------------------------------------|
-----------------------------------------------|
-----------------------------------------------|
---------------4-3-----------------------------|
4-3-0-1-2-1-0--2-1-4-3-0-1-2-1-0---------------|
4-3-0-1-2-1-0------4-3-0-1-2-1-0---------------|
. . . . . . .      . . . . . . .

-----------------------------------------------|
-----------------------------------------------|
-----------------------------------------------|
---------------4-3-----------------------------|
4-3-0-1-2-1-0--2-1-4-3-0-1-2-1-0---------------|
4-3-0-1-2-1-0------4-3-0-1-2-1-0---------------|
. . . . . . .      . . . . . . .

-----------------------------------------------|
-----------------------------------------------|
-----------------------------------------------|
---------------4-3-----------------------------|
4-3-0-1-2-1-0--2-1-4-3-0-1-2-1-0---------------|
4-3-0-1-2-1-0------4-3-0-1-2-1-0---------------|
. . . . . . .      . . . . . . .

-----------------------------------------------|
-----------------------------------------------|
-----------------------------------------------|
---------------4-3----------------2------------|
4-3-0-1-2-1-0--2-1-4-3-0-1-2-1-0--0------------|
4-3-0-1-2-1-0------4-3-0-1-2-1-0---------------|
. . . . . . .      . . . . . . .


"Stomp Riff" (both guitars)
-----------------------------------------------|
-----------------------------------------------|
-----------------------------------------------|
----------------------2-----2------------------|
0-1-0--4-3-0--0-1-0---3-----4------------------|
0-1-0--4-3-0--0-1-0-----0-0--------------------|
. . .  . . .  . . .     . .

-----------------------------------------------|
-----------------------------------------------|
-----------------------------------------------|
----------------------2-----2------------------|
0-1-0--4-3-0--0-1-0---3-----4------------------|
0-1-0--4-3-0--0-1-0-----0-0--------------------|
. . .  . . .  . . .     . .

pre-verse riff (both guitars)
-----------------------------------------------|
-----------------------------------------------|
-----------------------------------------------|
---------------4-3-----------------------------|
4-3-0-1-2-1-0--2-1-4-3-0-1-2-1-0---------------|
4-3-0-1-2-1-0------4-3-0-1-2-1-0---------------|
. . . . . . .      . . . . . . .

-----------------------------------------------|
-----------------------------------------------|
-----------------------------------------------|
---------------4-3----------------2------------|
4-3-0-1-2-1-0--2-1-4-3-0-1-2-1-0--0------------|
4-3-0-1-2-1-0------4-3-0-1-2-1-0---------------|
. . . . . . .      . . . . . . .

Pre-verse (Jon's harmony)
-----------------------------------------------|
-----------------------------------------------|
--7-6--/9--7-6-4~------------------------------|
5----------------------------------------------|
-----------------------------------------------|
-----------------------------------------------|

Matt's harmony
-----------------------------------------------|
-----------------------------------------------|
-----------------------------------------------|
--5-4--/7-5-4-2~-------------------------------|
3----------------------------------------------|
-----------------------------------------------|

Verse
----------------------------------------------------------------------------|
----------------------------------------------------------------------------|
----------------------------------------------------------------------------|
7--------------------------3---------5/6\5----------------------------------|
5------1-0-----------------1---------3/4\3------1-3-1-0---------8--7--1--3~-|
--0-0--1-0--0-0-0-0-0-0-0----0-0-0-0-------0-0--1-3-1-0--0-0-0---0--0--0----|
  . .       . . . . . . .    . . . .       . .           . . .  .   .  .

Verse (cont...)
----------------------------------------------------------------------------0~-|
--------------------------------------------------------------------------5-6~-|
---------------------------------------------------------------9-10--9--7---7~-|
7--------------------------3---------5/6\5---------------------0-0---0--0---0~-|
5------1-0-----------------1---------3/4\3------1-3-1-0------------------------|
--0-0--1-0--0-0-0-0-0-0-0----0-0-0-0-------0-0--1-3-1-0--0-0-0-----------------|
  . .       . . . . . . .    . . . .       . .           . . .

Verse harmony
--------------------|
--------------------|
--------------------|
-------7--5--0--2~~-|
--------------------|
0-0-0---0--0--0-----|
. . .  . . .


Pre-Chorus
----------------------------------------------------------------|
----------------------------------------------------------------|
----------------------------------------------------------------|
----------------------------------------------------------------|
----------------------------------------------------------------|
1p0-0-0-0-0-6p3-3-3-0-0-3-3-5-5-1p0-0-0-0-0-6p3-3-3-0-0-3-3-3-3-|
. . . . . . . . . . . . . . . . . . . . . . . . . . . . . . . .

--------------------------------------------------------*5---------|
----------------------------------------------------------*5-------|
------------------------------------------------------------*5-----|
--------------------------------------------------------------*5---|
----------------------------------------------------------------*5-|
1p0-0-0-0-0-6p3-3-3-0-0-3-3-5-5-1p0-0-0-0-0-6p3-3-3-0-0------------|
. . . . . . . . . . . . . . . . . . . . . . . . . . . .


Chorus
-----------------------------------------------------------------------|
-----------------------------------------------------------------------|
-----------------------------------------------------------------------|
-----------------------------------------------------------------------|
5-6-----3-5-3---------8-7---4-5~~--5-6-----3-5-3-----------------------|
5-6--0--3-5-3--0-0-0------0--------5-6--0--3-5-3---0-0-0-0-0-0-0-0-0-0-|
     .         . . .      .             .          . . . . . . . . . .

Chorus harmony
-----------------------------------------------------------------------|
-----------------------------------------------------------------------|
-----------------------------------------------------------------------|
-----------------------------------------------------------------------|
5-6-----3-5-3---------8-7---7-8~~--5-6-----3-5-3-----------------------|
5-6--0--3-5-3--0-0-0------0--------5-6--0--3-5-3---0-0-0-0-0-0-0-0-0-0-|
     .         . . .      .             .          . . . . . . . . . .

Verse
----------------------------------------------------------------------------|
----------------------------------------------------------------------------|
----------------------------------------------------------------------------|
7--------------------------3---------5/6\5----------------------------------|
5------1-0-----------------1---------3/4\3------1-3-1-0---------8--7--1--3~-|
--0-0--1-0--0-0-0-0-0-0-0----0-0-0-0-------0-0--1-3-1-0--0-0-0---0--0--0----|
  . .       . . . . . . .    . . . .       . .           . . .  .   .  .

Verse (cont...)
----------------------------------------------------------------------------0~-|
--------------------------------------------------------------------------5-6~-|
---------------------------------------------------------------9-10--9--7---7~-|
7--------------------------3---------5/6\5---------------------0-0---0--0---0~-|
5------1-0-----------------1---------3/4\3------1-3-1-0------------------------|
--0-0--1-0--0-0-0-0-0-0-0----0-0-0-0-------0-0--1-3-1-0--0-0-0-----------------|
  . .       . . . . . . .    . . . .       . .           . . .

Verse harmony
--------------------|
--------------------|
--------------------|
-------7--5--0--2~~-|
--------------------|
0-0-0---0--0--0-----|
. . .  . . .

Chorus
-----------------------------------------------------------------------|
-----------------------------------------------------------------------|
-----------------------------------------------------------------------|
-----------------------------------------------------------------------|
5-6-----3-5-3---------8-7---4-5~~--5-6-----3-5-3-----------------------|
5-6--0--3-5-3--0-0-0------0--------5-6--0--3-5-3---0-0-0-0-0-0-0-0-0-0-|
     .         . . .      .             .          . . . . . . . . . .

Chorus harmony
-----------------------------------------------------------------------|
-----------------------------------------------------------------------|
-----------------------------------------------------------------------|
-----------------------------------------------------------------------|
5-6-----3-5-3---------8-7---7-8~~--5-6-----3-5-3-----------------------|
5-6--0--3-5-3--0-0-0------0--------5-6--0--3-5-3---0-0-0-0-0-0-0-0-0-0-|
     .         . . .      .             .          . . . . . . . . . .

Pre-solo
---------------------------------|
---------------------------------|
---------------------------0-----|
-1---4---4/5\4---5-------1---1---|
-3---5---5/6\5---5---3-3-------3-|
---0---0-------0---0-------------|

Solo
---------------------------------------------------------10-13-12-10-12~-|
----10h13p10---10--------------------------8-10-11-----------------------|
12^----------12---12-9-12-10-9----------------------9-10-----------------|
--------------------------------8/10~--7-8-------------------------------|
-------------------------------------------------------------------------|
-------------------------------------------------------------------------|

0-----------------------------------------------------6--|
0-13^^-10h11p10----11h13p11--10h11h13p10\8-8-10-----6----|
----------------12--------------------------------7------|
------------------------------------------------0--------|
---------------------------------------------------------|
---------------------------------------------------------|

-10/13-10-------12-15p12----------17p13--------13--17p13----17----|
----------11/13----------13-------------15---15----------15----15-|
----------------------------15-14----------14---------------------|
------------------------------------------------------------------|
------------------------------------------------------------------|
------------------------------------------------------------------|

-13-17/20-18-17-18-17--15p12-----------12h15p12----12h13h15p13-|
-----------------------------13-----13----------13-------------|
--------------------------------12-----------------------------|
---------------------------------------------------------------|
---------------------------------------------------------------|
---------------------------------------------------------------|

----------------------------13^^-13-10---10-------------------------------------|
-15-13-0---13^^----10h13^-------------13---13-10------10------------------13^^--|
-------0--------12--------------------------------12/13---12-10---10-11-10------|
----------------------------------------------------------------12--------------|
--------------------------------------------------------------------------------|
--------------------------------------------------------------------------------|


Backing guitar during solo
----------------------------------|
----------------------------------|
----------------------------------|
7~---5~~---3~~--------------------|
5~---3~~---1~~---3~~--------------|
-----------------3~~--------------|

Verse
----------------------------------------------------------------------------|
----------------------------------------------------------------------------|
----------------------------------------------------------------------------|
7--------------------------3---------5/6\5----------------------------------|
5------1-0-----------------1---------3/4\3------1-3-1-0---------8--7--1--3~-|
--0-0--1-0--0-0-0-0-0-0-0----0-0-0-0-------0-0--1-3-1-0--0-0-0---0--0--0----|
  . .       . . . . . . .    . . . .       . .           . . .  .   .  .

Verse (cont...)
----------------------------------------------------------------------------0~-|
--------------------------------------------------------------------------5-6~-|
---------------------------------------------------------------9-10--9--7---7~-|
7--------------------------3---------5/6\5---------------------0-0---0--0---0~-|
5------1-0-----------------1---------3/4\3------1-3-1-0------------------------|
--0-0--1-0--0-0-0-0-0-0-0----0-0-0-0-------0-0--1-3-1-0--0-0-0-----------------|
  . .       . . . . . . .    . . . .       . .           . . .

Verse harmony
--------------------|
--------------------|
--------------------|
-------7--5--0--2~~-|
--------------------|
0-0-0---0--0--0-----|
. . .  . . .

the part before the last chorus (matt's harmony)
----------------------------------------------------|
----------------------------------------------------|
----------------------------------------------------|
--5-4--/7-5-4-2~~-----------------------------------|
3-------------------000-000-000-000-000-000-000-000-|
--------------------000-000-000-000-000-000-000-000-|
                    ... ... ... ... ... ... ... ...
                    ^^triplets
jon's harmony
------------------------------------------------------|
------------------------------------------------------|
--7-6--/9-7-6-4~~-------------------------------------|
5-----------------------------------------------------|
----------------------000-000-000-000-000-000-000-000-|
----------------------000-000-000-000-000-000-000-000-|
                      ... ... ... ... ... ... ... ...
                      ^^triplets

Chorus
-----------------------------------------------------------------------|
-----------------------------------------------------------------------|
-----------------------------------------------------------------------|
-----------------------------------------------------------------------|
5-6-----3-5-3---------8-7---4-5~~--5-6-----3-5-3-----------------------|
5-6--0--3-5-3--0-0-0------0--------5-6--0--3-5-3---0-0-0-0-0-0-0-0-0-0-|
     .         . . .      .             .          . . . . . . . . . .

Chorus harmony
-----------------------------------------------------------------------|
-----------------------------------------------------------------------|
-----------------------------------------------------------------------|
-----------------------------------------------------------------------|
5-6-----3-5-3---------8-7---7-8~~--5-6-----3-5-3-----------------------|
5-6--0--3-5-3--0-0-0------0--------5-6--0--3-5-3---0-0-0-0-0-0-0-0-0-0-|
     .         . . .      .             .          . . . . . . . . . .


random solo
----------12h15h18p15p12---------------15-18-21-18-15-----15-18-15------|
-------14----------------14----------17---------------17----------17----|
-12h15----------------------15/18-18--------------------18----------18--|
------------------------------------------------------------------------|
------------------------------------------------------------------------|
------------------------------------------------------------------------|

----------12h15h18p15p12---------------15-18-21-18-15-----15-18-15------|
-------14----------------14----------17---------------17----------17----|
-12h15----------------------15/18-18--------------------18----------18--|
------------------------------------------------------------------------|
------------------------------------------------------------------------|
------------------------------------------------------------------------|

The ending stomp riff (both guitars)
-----------------------------------------------|
-----------------------------------------------|
-----------------------------------------------|
----------------------2-----2------------------|
0-1-0--4-3-0--0-1-0---3-----4------------------|
0-1-0--4-3-0--0-1-0-----0-0--------------------|
. . .  . . .  . . .     . .

-----------------------------------------------|
-----------------------------------------------|
-----------------------------------------------|
----------------------2-----2------------------|
0-1-0--4-3-0--0-1-0---3-----4------------------|
0-1-0--4-3-0--0-1-0-----0-0--------------------|
. . .  . . .  . . .     . .

-----------------------------------------------|
-----------------------------------------------|
-----------------------------------------------|
----------------------2-----2------------------|
0-1-0--4-3-0--0-1-0---3-----4------------------|
0-1-0--4-3-0--0-1-0-----0-0--------------------|
. . .  . . .  . . .     . .

-----------------------------------------------|
-----------------------------------------------|
-----------------------------------------------|
----------------------2-----2------------------|
0-1-0--4-3-0--0-1-0---3-----4------------------|
0-1-0--4-3-0--0-1-0-----0-0--------------------|
. . .  . . .  . . .     . .


Shadows Fall is my favorite band in the whole world and this song is awesome and sick, 
you want to contact me, IM me on AIM, my screen name is ShadowsFall4All.
comments
print report bad tab
7 comments total. Showing first comments.
0 reply
killswitch_mike wrote on January 10 2006, 09:49 am

One thing Wrong, On the chorus i swear i hear a harmonic, awesome tab though

0 reply
broken_leg wrote on April 8 2006, 04:56 am

yeah theres definitly a harmonic there but other than that seems gosh darn radical to me.

0 reply
badguitarist13 wrote on May 14 2007, 07:06 pm

pretty sick bro.

I want to post or [tab]
guest
You may want to rate the tab now too:
select rating
Please do not post tabs as comments. Select "correction" instead!