Oops, an error
Loading. Please wait.

The Power Of I And I Tab

ver4
ver4

Intro

Solo

Whole song

More versions @911Tabs.com
173 views 1 this week
no commentswrite comment
1 2 3 4 5
accurate
x 1
Autoscroll
+/-
esc
set tempo
stop
Contributor
WARNING: You are trying to view
                                    content from Ultimate-Guitar.com
                                    in an unauthorized application,
                                    which is prohibited.

                                    Please use an official Ultimate
                                    Guitar Tabs application for iPhone,
                                    iPad or Android to access legitimate
                                    chords, guitar, bass, and drum tabs
                                    from Ultimate-Guitar.com database.

                                    Type "ultimate guitar tabs" in Apple
                                    App Store's or Android Market's
                                    search to find the application.
Band: Shadows Fall
Album: The War Within
Song: The Power Of I and I

Copyright (c) Century Media, 2004
Version 1.0 - 11/9/06

Transcribed By: William Davis
Email: March_Of_Destruction@yahoo.com

Tuning: C G C F A D (From Top String To Bottom)

                                              x4
D|----------------------------------------------||-----------------------|
A|----------------------------------------------||-----------------------|
F|----------------------------------------------||-----------------------|
C|--------------------4\3-----------------------||--------------------3--|
G|--4-3--0--1-2-1--0--2\1--0--4-3--0--1-2-1--0--||--4-3--0--1-2-1--0--1--|
C|--4-3--0--1-2-1--0-------0--4-3--0--1-2-1--0--||--4-3--0--1-2-1--0-----|
    * *  *  * * *  *       *  * *  *  * * *  *      * *  *  * * *  *

                                  x3
D|----------------------------------|
A|----------------------------------|
F|----------------------------------|
C|-------------------------2-----2--|
G|--0-1-0--4-3-0--0-1-0----3-----4--|
C|--0-1-0--4-3-0--0-1-0--0---0-0----|
    * * *  * * *  * * *  *   * *

                                              x2
D|----------------------------------------------||-----------------------|
A|----------------------------------------------||-----------------------|
F|----------------------------------------------||-----------------------|
C|--------------------4\3-----------------------||--5--5-4--5/7--5-4-2~--|
G|--4-3--0--1-2-1--0--2\1--0--4-3--0--1-2-1--0--||--3--------------------|
C|--4-3--0--1-2-1--0-------0--4-3--0--1-2-1--0--||-----------------------|
 |  * *  *  * * *  *       *  * *  *  * * *  *
 |
 |                                            x2
D|----------------------------------------------||-----------------------|
A|----------------------------------------------||-----7-6--7/9--7-6-4~--|
F|----------------------------------------------||-----------------------|
C|--------------------4\3-----------------------||--5--------------------|
G|--4-3--0--1-2-1--0--2\1--0--4-3--0--1-2-1--0--||--3--------------------|
C|--4-3--0--1-2-1--0-------0--4-3--0--1-2-1--0--||-----------------------|
    * *  *  * * *  *       *  * *  *  * * *  *

D|---------------------------------------------------------------------|
A|---------------------------------------------------------------------|
F|---------------------------------------------------------------------|
C|--7---------------------3-----------5/6\5----------------------------|
G|--5--0-0--1p0--0-0-0-0--1--0-0-0-0--3/4\3----1-3-1--0-0--8-7---1-3~--|
C|-----0-0--1p0--0-0-0-0-----0-0-0-0---------0-1-3-1--0-0------0-------|
 |     * *       * * * *     * * * *         *        * *      *
 |
 |                                                                         
D|---------------------------------------------------------------------|
A|---------------------------------------------------------------------|
F|---------------------------------------------------------------------|
C|--7---------------------3-----------5/6\5----------------7-5-----2~--|
G|--5--0-0--1p0--0-0-0-0--1--0-0-0-0--3/4\3----1-3-1--0-0--------5-----|     
C|-----0-0--1p0--0-0-0-0-----0-0-0-0---------0-1-3-1--0-0------0-------|
       * *       * * * *     * * * *         *        * *      
                                                                             
|-----------------------------------------------------------------------0--| 
|--------------------------------------------------------------------------| 
|---------------------------------------------------------9-10---9/7--7----| 
|--7---------------------3-----------5/6\5----------------0--0--10/8--8----|
|--5--0-0--1p0--0-0-0-0--1--0-0-0-0--3/4\3----1-3-1--0-0-------------------|
|-----0-0--1p0--0-0-0-0-----0-0-0-0---------0-1-3-1--0-0-------------------|
      * *       * * * *     * * * *         *        * *

                    x3
D|--------------------||---------------5a--------------|
A|--------------------||------------------5a-----------|
F|--------------------||---------------------5a--------|
C|--------------------||------------------------5a-----|
G|-----------------3--||---------------------------5a--|
C|--1-0-6-3-3-5-0--3--||--1-0-6-3-3-5------------------|
    * * * * * * *         * * * * * *

                                                                      x2
D|----------------------------------------------------------------------|
A|----------------------------------------------------------------------|
F|----------------------------------------------------------------------|
C|----------------------------------------------------------------------|
G|--5-6-----3-5-3----8-7---4-5--5-6-----3-5-3-0--0-0-0-0-0-0-0-0-0-0-0--|
C|--5-6--0--3-5-3--0-----0------5-6--0--3-5-3-0--0-0-0-0-0-0-0-0-0-0-0--|
 |       *         *     *           *           * * * * * * * * * * *
 |
 |                                                                    x2
D|----------------------------------------------------------------------|
A|----------------------------------------------------------------------|
F|----------------------------------------------------------------------|
C|----------------------------------------------------------------------|
G|--5-6-----3-5-3----8-7---7-8--5-6-----3-5-3-0--0-0-0-0-0-0-0-0-0-0-0--|
C|--5-6--0--3-5-3--0-----0------5-6--0--3-5-3-0--0-0-0-0-0-0-0-0-0-0-0--|
         *         *     *           *           * * * * * * * * * * *

D|---------------------------------------------------------------------|
A|---------------------------------------------------------------------|
F|---------------------------------------------------------------------|
C|--7---------------------3-----------5/6\5----------------------------|
G|--5--0-0--1p0--0-0-0-0--1--0-0-0-0--3/4\3----1-3-1--0-0--8-7---1-3~--|
C|-----0-0--1p0--0-0-0-0-----0-0-0-0---------0-1-3-1--0-0------0-------|
 |     * *       * * * *     * * * *         *        * *      *
 |
 |                                                                         
D|---------------------------------------------------------------------|
A|---------------------------------------------------------------------|
F|---------------------------------------------------------------------|
C|--7---------------------3-----------5/6\5----------------7-5-----2~--|
G|--5--0-0--1p0--0-0-0-0--1--0-0-0-0--3/4\3----1-3-1--0-0--------5-----|     
C|-----0-0--1p0--0-0-0-0-----0-0-0-0---------0-1-3-1--0-0------0-------|
       * *       * * * *     * * * *         *        * *      
                                                                             
|-----------------------------------------------------------------------0--| 
|--------------------------------------------------------------------------| 
|---------------------------------------------------------9-10---9/7--7----| 
|--7---------------------3-----------5/6\5----------------0--0--10/8--8----|
|--5--0-0--1p0--0-0-0-0--1--0-0-0-0--3/4\3----1-3-1--0-0-------------------|
|-----0-0--1p0--0-0-0-0-----0-0-0-0---------0-1-3-1--0-0-------------------|
      * *       * * * *     * * * *         *        * *

                                                                      x4
D|----------------------------------------------------------------------|
A|----------------------------------------------------------------------|
F|----------------------------------------------------------------------|
C|----------------------------------------------------------------------|
G|--5-6-----3-5-3----8-7---4-5--5-6-----3-5-3-0--0-0-0-0-0-0-0-0-0-0-0--|
C|--5-6--0--3-5-3--0-----0------5-6--0--3-5-3-0--0-0-0-0-0-0-0-0-0-0-0--|
 |       *         *     *           *           * * * * * * * * * * *
 |
 |                                                                    x4
D|----------------------------------------------------------------------|
A|----------------------------------------------------------------------|
F|----------------------------------------------------------------------|
C|----------------------------------------------------------------------|
G|--5-6-----3-5-3----8-7---7-8--5-6-----3-5-3-0--0-0-0-0-0-0-0-0-0-0-0--|
C|--5-6--0--3-5-3--0-----0------5-6--0--3-5-3-0--0-0-0-0-0-0-0-0-0-0-0--|
         *         *     *           *           * * * * * * * * * * *

                                     x4
D|-------------------------------------|
A|-------------------------------------|
F|----------------------------0--------|
C|--1---4---4/5-4---4-------1----------|
G|--3---5---5/6-5---5---3-3-------3----|
C|----0---0-------0---0----------------|
      *   *       *   *

Solo
|------------------------------------------------------10-13-12-10-12-0-----|
|----10-13p10----10-----------------------8-11-10---------------------0-13b-|
|12b----------12----12-9-12-10-9------------------9-10----------------------|
|--------------------------------8/10---------------------------------------|
|-------------------------------------7-8-----------------------------------|
|---------------------------------------------------------------------------|

|-------------------------------------------------6--10/13-10-------12-15p12|
|-10h11p10----11/13\11--10h11h13p10\8--8/10-----6-------------11/13---------|
|----------12---------------------------------7-----------------------------|
|-------------------------------------------0-------------------------------|
|---------------------------------------------------------------------------|
|---------------------------------------------------------------------------|

D|-----------17p13----------13--17p13----17----13-17/20-18-17-18-17--|
A|--13-------------15----15-----------15----15-----------------------|
F|--------------------14---------------------------------------------|
C|-----15-14---------------------------------------------------------|
G|-------------------------------------------------------------------|
C|-------------------------------------------------------------------|
                    *  *  *  *

|-15p12------------12h15p12----12h13h15p13/10--12h13p12-12------------------|
|-------13------13----------13-----------------------------15-13-------13b--|
|----------12-x---------------------------------------------------0-0-------|
|-----------------------------------------------------------------0-0-------|
|---------------------------------------------------------------------------|
|---------------------------------------------------------------------------|

D|---------------13br-13-10----10------------------------------------|
A|-----10h13-13b------------13----13-10-------10---------------------|
F|--12----------------------------------12/13----12-10----10-11-10\--|
C|-----------------------------------------------------12------------|
G|-------------------------------------------------------------------|
C|-------------------------------------------------------------------|

Solo Rhythm
                                x2                                 x2
D|--------------------------------||---------------------------------|
A|--------------------------------||---------------------------------|
F|--------------------------------||---------------------------------|
C|--7~----5~----3~----------------||--7~----9~----10~----------------|
G|--5~----3~----1~----3~----5-----||--5~----7~-----8~----5~----7-----|
C|--------------------3~-3--5--0--||---------------------5~-5--7--0--|
                         *     *                            *     *

D|---------------------------------------------------------------------|
A|---------------------------------------------------------------------|
F|---------------------------------------------------------------------|
C|--7---------------------3-----------5/6\5----------------------------|
G|--5--0-0--1p0--0-0-0-0--1--0-0-0-0--3/4\3----1-3-1--0-0--8-7---1-3~--|
C|-----0-0--1p0--0-0-0-0-----0-0-0-0---------0-1-3-1--0-0------0-------|
 |     * *       * * * *     * * * *         *        * *      *
 |
 |                                                                         
D|---------------------------------------------------------------------|
A|---------------------------------------------------------------------|
F|---------------------------------------------------------------------|
C|--7---------------------3-----------5/6\5----------------7-5-----2~--|
G|--5--0-0--1p0--0-0-0-0--1--0-0-0-0--3/4\3----1-3-1--0-0--------5-----|     
C|-----0-0--1p0--0-0-0-0-----0-0-0-0---------0-1-3-1--0-0------0-------|
       * *       * * * *     * * * *         *        * *      
                                                                             
|-----------------------------------------------------------------------0--| 
|--------------------------------------------------------------------------| 
|---------------------------------------------------------9-10---9/7--7----| 
|--7---------------------3-----------5/6\5----------------0--0--10/8--8----|
|--5--0-0--1p0--0-0-0-0--1--0-0-0-0--3/4\3----1-3-1--0-0-------------------|
|-----0-0--1p0--0-0-0-0-----0-0-0-0---------0-1-3-1--0-0-------------------|
      * *       * * * *     * * * *         *        * *

D|---------------------------------------------------------------------|
A|---------------------------------------------------------------------|
F|---------------------------------------------------------------------|
C|--7---------------------3-----------5/6\5----------------------------|
G|--5--0-0--1p0--0-0-0-0--1--0-0-0-0--3/4\3----1-3-1--0-0--8-7---1-3~--|
C|-----0-0--1p0--0-0-0-0-----0-0-0-0---------0-1-3-1--0-0------0-------|
 |     * *       * * * *     * * * *         *        * *      *
 |
 |                                                                         
D|---------------------------------------------------------------------|
A|---------------------------------------------------------------------|
F|---------------------------------------------------------------------|
C|--7---------------------3-----------5/6\5----------------7-5-----2~--|
G|--5--0-0--1p0--0-0-0-0--1--0-0-0-0--3/4\3----1-3-1--0-0--------5-----|     
C|-----0-0--1p0--0-0-0-0-----0-0-0-0---------0-1-3-1--0-0------0-------|
       * *       * * * *     * * * *         *        * *      
                                                                             
|-----------------------------------------------------------------------0--| 
|--------------------------------------------------------------------------| 
|---------------------------------------------------------9-10---9/7--7----| 
|--7---------------------3-----------5/6\5----------------0--0--10/8--8----|
|--5--0-0--1p0--0-0-0-0--1--0-0-0-0--3/4\3----1-3-1--0-0-------------------|
|-----0-0--1p0--0-0-0-0-----0-0-0-0---------0-1-3-1--0-0-------------------|
      * *       * * * *     * * * *         *        * *

D|---------------------------------------------------------------|
A|---------------------------------------------------------------|
F|---------------------------------------------------------------|
C|--5--5-4--5/7--5-4-2~------------------------------------------|
G|--3------------------------------------------------------------|
C|-----------------------000--000--000--000--000--000--000--000--|
 |                       ***  ***  ***  ***  ***  ***  ***  ***
 |
 |
D|---------------------------------------------------------------|
A|-----7-6--7/9--7-6-4~------------------------------------------|
F|---------------------------------------------------------------|
C|--5------------------------------------------------------------|
G|--3------------------------------------------------------------|
C|-----------------------000-------000-------000-------000--000--|
                         ***       ***       ***       ***  ***

                                                                      x4
D|----------------------------------------------------------------------|
A|----------------------------------------------------------------------|
F|----------------------------------------------------------------------|
C|----------------------------------------------------------------------|
G|--5-6-----3-5-3----8-7---4-5--5-6-----3-5-3-0--0-0-0-0-0-0-0-0-0-0-0--|
C|--5-6--0--3-5-3--0-----0------5-6--0--3-5-3-0--0-0-0-0-0-0-0-0-0-0-0--|
 |       *         *     *           *           * * * * * * * * * * *
 |
 |                                                                    x4
D|----------------------------------------------------------------------|
A|----------------------------------------------------------------------|
F|----------------------------------------------------------------------|
C|----------------------------------------------------------------------|
G|--5-6-----3-5-3----8-7---7-8--5-6-----3-5-3-0--0-0-0-0-0-0-0-0-0-0-0--|
C|--5-6--0--3-5-3--0-----0------5-6--0--3-5-3-0--0-0-0-0-0-0-0-0-0-0-0--|
         *         *     *           *           * * * * * * * * * * *

End Solo
|---------12h15h18p15p12-----------------15-18/21\18-15-------15h18p15------|
|------14----------------14-----------17----------------17-------------17---|
|12h15----------------------15/18--18----------------------18------------18\|
|---------------------------------------------------------------------------|
|---------------------------------------------------------------------------|
|---------------------------------------------------------------------------|
                                    *  *  *           *  *  *

End Solo Rhythm
D|--------------------|
A|--------------------|
F|--9--------9--------|
C|--7--------7--------|
G|--5--------5--------|
C|--------------------|


                                  x7
D|----------------------------------||-----------------------|
A|----------------------------------||-----------------------|
F|----------------------------------||-----------------------|
C|-------------------------2-----2--||-----------------------|
G|--0-1-0--4-3-0--0-1-0----3-----4--||--0-1-0--4-3-0--0-1-0--|
C|--0-1-0--4-3-0--0-1-0--0---0-0----||--0-1-0--4-3-0--0-1-0--|
    * * *  * * *  * * *  *   * *        * * *  * * *  * * *

Notation:

b = Bend Full Step
* = Palm Mute
h = Hammer-On
p = Pull-Off
~ = vibrato
/ = Slide Up
\ = Slide Down
a = Harmonic
x = Mute
comments
We did not receive enough feedback on this tab! Please rate:
print report bad tab
1 2 3 4 5
I want to post or [tab]
guest
You may want to rate the tab now too:
select rating
Please do not post tabs as comments. Select "correction" instead!