Oops, an error
Loading. Please wait.

Those Who Cannot Speak Tab

ver1
ver1

Whole song

More versions @911Tabs.com
8,163 views 15 this week
16 commentsread comments
1 2 3 4 5
excellent!
x 11
Autoscroll
+/-
esc
set tempo
stop
Contributor
WARNING: You are trying to view
                                    content from Ultimate-Guitar.com
                                    in an unauthorized application,
                                    which is prohibited.

                                    Please use an official Ultimate
                                    Guitar Tabs application for iPhone,
                                    iPad or Android to access legitimate
                                    chords, guitar, bass, and drum tabs
                                    from Ultimate-Guitar.com database.

                                    Type "ultimate guitar tabs" in Apple
                                    App Store's or Android Market's
                                    search to find the application.
Band: Shadows Fall
Song: Those Who Cannot Speak

Tuning: D A F C G D

Guitar 1 - rhythm
Guitar 2 - lead


Intro:
                            (Guitar 1)
d|-------------------------------------------------------------------|
G|--------1p0-------------0-----0------------------------0-----0-----|
C|------2-----2---------0---0-------------2----2-------0---0---------|
F|----2---------2-----0-------0---0-----3---3----0---0-------0----0--|
A|--0-------------0-----------------6-3-------3----------------------|
D|------------------3------------------------------3-----------------|

                            (Guitar 1)
d|-------------------------------------------------------------------|
G|--------1p0-------------0-----0------------------------0-----0-----|
C|------2-----2---------0---0-------------2----2-------0---0---------|
F|----2---------2-----0-------0---0-----3---3----0---0-------0----0--|
A|--0-------------0-----------------6-3-------3----------------------|
D|------------------3------------------------------3-----------------|
 |                                                                   |
 |                                                                   | x3
 |                           (Guitar 2)                              |
d|-------------------------------------------------------------------|
G|-------------------------------------------------------------------|
C|-------------------------------------------------------------------|
F|--7-----9h10------9------------9----------------------------10--9--|
A|------------------------10-----------10--8-------8--10-------------|
D|-------------------------------------------------------------------|


Pre-Verse:
                                           (Guitar 1)
d|----------------------------------------------------------------------------------------------|
G|----------------------------------------------------------------------------------------------|
C|----------------------------------------------------------------------------------------------|
F|-777------------------777---------------------------------------------------10--9--7-10-9-----|
A|-777------------------777------------------00-10-10\8-00-10-10\8-00-8/10-00---00-00-0--0-0-10-|
D|-555------------------555---------------------------------------------------------------------|
 |pm                                         ..         ..         ..      ..   .. .. .  . .    |
 |                                                                                              |
 |                                         (Guitar 2)                                           |
d|----------------------------------------------------------------------------------------------|
G|----------------------------------------------------------------------------------------------|
C|----------------------------------------------------------------------------------------------|
F|77-10--9--7-10-9----------10--9--9-9-9-10~-----9--9\7-----9--9\7----7/-9----10--9--7-10-9-----|
A|-----00-00-0--0-0-10~-1010--00-00-0-0-0----00-10-10\8-00-10-10\8-00-8/10-00---00-00-0--0-0-10~|
D|----------------------------------------------------------------------------------------------|
  pm   .. .. .  . .           .. .. . . .    ..         ..         ..      ..   .. .. .  . .


Verse:
                                           (Guitar 1)
d|----------------------------------------------------------------------------------------------|
G|----------------------------------------------------------------------------------------------|
C|----------------------------------------------------------------------------------------------|
F|----10--9--7-10-9----------10--9--------------------------------------------10--9-------------|
A|--00--00-00-0--0-0-10~-1010--00-00-7sh-8sh-00-10-10\8-00-10-10\8-00-8/10-00---00-00-8sh-10sh--|
D|----------------------------------------------------------------------------------------------|
 |pm..  .. .. .  . .           .. ..         ..         ..         ..      ..   .. ..           |
 |                                                                                              |
 |                                         (Guitar 2)                                           |
d|----------------------------------------------------------------------------------------------|
G|----------------------------------------------------------------------------------------------|
C|----------------------------------------------------------------------------------------------|
F|----10--9--7-10-9----------10--9--9-9-9-10~----9--9\7-----9--9\7----7/-9----10--9--7-10-9-----|
A|--00--00-00-0--0-0-10~-1010--00-00-0-0-0---00-10-10\8-00-10-10\8-00-8/10-00---00-00-0--0-0-10~|
D|----------------------------------------------------------------------------------------------|
  pm..  .. .. .  . .           .. .. . . .   ..         ..         ..      ..   .. .. .  . .


Chorus:
                                           (Guitar 1)
d|-----------------------------------------------------------------------------------------------|
G|-----------------------------------------------------------------------------------------------|
C|-----------------------------------------------------------------------------------------------|
F|--222---222222222---22222222---22222222---2222---222---222222222---22222222---22222222---2222--|
A|--222---222222222---22222222---22222222---2222---222---222222222---22222222---22222222---2222--|
D|--000---000000000---00000000---00000000---0000---000---000000000---00000000---00000000---0000--|
 |pm...   .........   ........   ........   ....   ...   .........   ........   ........   ....  |
 |                                                                                               | x2
 |                                         (Guitar 2)                                            |
d|-----------------------------------------------------------------------------------------------|
G|-----------------------------------------------------------------------------------------------|
C|-----------------------------------------------------------------------------------------------|
F|--------9-----------10---------7-----------------------9-----------10---------7----------------|
A|--0h7h9---0h7h9--------0h7h9-----0h7h9----10-----0h7h9---0h7h9--------0h7h9-----0h7h9----10----|
D|-----------------------------------------------------------------------------------------------|

                            (Guitar 1)
d|-------------------------------------------------------------------|
G|-------------------------------------------------------------------|
C|-------------------------------------------------------------------|
F|-------------------------------------------------------------------|
A|--------2-2-2---------5--4--5----------2-2-2----5---x-7------7--7--|
D|--0-0-0-0-0-0---0-0-0-3--2--3----0-0-0-0-0-0----3---x-5------5--5--|
 |pm. . .         . . .            . . .              .              |
 |                                                                   | x2
 |                           (Guitar 2)                              |
d|-------------------------------------------------------------------|
G|-------------------------------------------------------------------|
C|------------------------------------------------9-7----------------|
F|--------9--------10-9------------------9------------10-9-10-9------|
A|--0-7-9---10-9--------10-9-10-9--0-7-9---10-9-----------------10-9-|
D|-------------------------------------------------------------------|


Interlude:
     (Guitar 1)
|------------------|
|------------------|
|------------------|
|-2-x-2-3--2-x-2-3-|
|-2-x-2-3--2-x-2-3-|
|-0-x-0-1--0-x-0-1-|
|
|
|    (Guitar 2)
|------------------|
|------------------|
|------------------|
|-2-x-2-3--2-x-2-3-|
|-2-x-2-3--2-x-2-3-|
|-0-x-0-1--0-x-0-1-|


Verse:
                                           (Guitar 1)
d|----------------------------------------------------------------------------------------------|
G|----------------------------------------------------------------------------------------------|
C|----------------------------------------------------------------------------------------------|
F|----10--9--7-10-9----------10--9--------------------------------------------10--9-------------|
A|--00--00-00-0--0-0-10~-1010--00-00-7sh-8sh-00-10-10\8-00-10-10\8-00-8/10-00---00-00-8sh-10sh--|
D|----------------------------------------------------------------------------------------------|
 |pm..  .. .. .  . .           .. ..         ..         ..         ..      ..   .. ..           |
 |                                                                                              |
 |                                         (Guitar 2)                                           |
d|----------------------------------------------------------------------------------------------|
G|----------------------------------------------------------------------------------------------|
C|----------------------------------------------------------------------------------------------|
F|----10--9--7-10-9----------10--9--9-9-9-10~----9--9\7-----9--9\7----7/-9----10--9--7-10-9-----|
A|--00--00-00-0--0-0-10~-1010--00-00-0-0-0---00-10-10\8-00-10-10\8-00-8/10-00---00-00-0--0-0-10~|
D|----------------------------------------------------------------------------------------------|
  pm..  .. .. .  . .           .. .. . . .   ..         ..         ..      ..   .. .. .  . .


Chorus:
                                           (Guitar 1)
d|-----------------------------------------------------------------------------------------------|
G|-----------------------------------------------------------------------------------------------|
C|-----------------------------------------------------------------------------------------------|
F|--222---222222222---22222222---22222222---2222---222---222222222---22222222---22222222---2222--|
A|--222---222222222---22222222---22222222---2222---222---222222222---22222222---22222222---2222--|
D|--000---000000000---00000000---00000000---0000---000---000000000---00000000---00000000---0000--|
 |pm...   .........   ........   ........   ....   ...   .........   ........   ........   ....  |
 |                                                                                               | x2
 |                                         (Guitar 2)                                            |
d|-----------------------------------------------------------------------------------------------|
G|-----------------------------------------------------------------------------------------------|
C|-----------------------------------------------------------------------------------------------|
F|--------9-----------10---------7-----------------------9-----------10---------7----------------|
A|--0h7h9---0h7h9--------0h7h9-----0h7h9----10-----0h7h9---0h7h9--------0h7h9-----0h7h9----10----|
D|-----------------------------------------------------------------------------------------------|

                            (Guitar 1)
d|-------------------------------------------------------------------|
G|-------------------------------------------------------------------|
C|-------------------------------------------------------------------|
F|-------------------------------------------------------------------|
A|--------2-2-2---------5--4--5----------2-2-2----5---x-7------7--7--|
D|--0-0-0-0-0-0---0-0-0-3--2--3----0-0-0-0-0-0----3---x-5------5--5--|
 |pm. . .         . . .            . . .              .              |
 |                                                                   | x2
 |                           (Guitar 2)                              |
d|-------------------------------------------------------------------|
G|-------------------------------------------------------------------|
C|------------------------------------------------9-7----------------|
F|--------9--------10-9------------------9------------10-9-10-9------|
A|--0-7-9---10-9--------10-9-10-9--0-7-9---10-9-----------------10-9-|
D|-------------------------------------------------------------------|


Bridge:
                                           (Guitar 1)
d|-----------------------------------------------------------------------------------------------|
G|-----------------------------------------------------------------------------------------------|
C|-----------------------------------------------------------------------------------------------|
F|--2-2-2--2-2-2-2-2-2-2-2---3/------5\------3/-----9\----222----3/------5\------3/------7\------|
A|--2-2-2--2-2-2-2-2-2-2-2---3/------5\------3/-----9\----222----3/------5\------3/------7\------|
D|--0-0-0--0-0-0-0-0-0-0-0---1/------3\------1/-----7\----000----1/------3\------1/------5\------|
 |pm. . .  . . . . . . . .                                ...                                    |
 |                                                                                               |
 |                                         (Guitar 2)                                            |
d|-------------------------------12--12----------15-15---------------17--17----------19--19------|
G|-----------------------------13------13------16-----16-----------18------18------18------18----|
C|---------------------------14----------14--17---------17-------19----------19--17----------17--|
F|--2-2-2--2-2-2-2-2-2-2-2-----------------------------------------------------------------------|
A|--2-2-2--2-2-2-2-2-2-2-2-----------------------------------------------------------------------|
D|--0-0-0--0-0-0-0-0-0-0-0-----------------------------------------------------------------------|
  pm. . .  . . . . . . . .

                                           (Guitar 1)
d|-----------------------------------------------------------------------------------------------|
G|-----------------------------------------------------------------------------------------------|
C|-----------------------------------------------------------------------------------------------|
F|-3/----------5\---------3/----------9\----------3/----------5\----------3/----------7\---------|
A|-3/----------5\---------3/----------9\----------3/----------5\----------3/----------7\---------|
D|-1/----------3\---------1/----------7\----------1/----------3\----------1/----------5\---------|
 |                                                                                               |
 |                                                                                               | x2
 |                                         (Guitar 2)                                            |
d|---------12--12-----------------15--15------------------17--17------------------19--19---------|
G|-----13---------13----------16----------16----------18----------18----------18----------18-----|
C|-14-----------------14--17------------------17--19------------------19--17------------------17-|
F|-----------------------------------------------------------------------------------------------|
A|-----------------------------------------------------------------------------------------------|
D|-----------------------------------------------------------------------------------------------|

Interlude:
            (Guitar 1)
d|------------------------------|
G|------------------------------|
C|------------------------------|
F|--2-2-0--2-2--0-0----10\\--5--|
A|--2-2-0--2-2--0-0----10\\--5--|
D|--0-0-0--0-0--0-0-----8\\--3--|
 |pm. .    . .  .               |
 |                              |
 |          (Guitar 2)          |
d|------------------------------|
G|------------------------------|
C|------------------------------|
F|--2-2-0--2-2--0-0----10\\--5--|
A|--2-2-0--2-2--0-0----10\\--5--|
D|--0-0-0--0-0--0-0-----8\\--3--|
  pm. .    . .  .

                                           (Guitar 1)
d|-----------------------------------------------------------------------------------------------|
G|-----------------------------------------------------------------------------------------------|
C|-----------------------------------------------------------------------------------------------|
F|----7-------------2-------------3-------5----------7-------------2-------------3-------5-------|
A|----7-------------2-------------3-------5----------7-------------2-------------3-------5-------|
D|----5-------------0-------------1-------3----------5-------------0-------------1-------3-------|
 |                                                                                               |
 |                                                                                               |
 |                                         (Guitar 2)                                            |
d|-----------------------------------------------------------------------------------------------|
G|-----------------------------------------------------------------------------------------------|
C|-----------------------------------------------------------------------------------------------|
F|----7--9h10-9--------9------------------10-9-------7--9h10-9--------9------------------10-9----|
A|------------------10----10-8----8-10-----------------------------10----10-8----8-10------------|
D|-----------------------------------------------------------------------------------------------|

                                           (Guitar 1)
d|-----------------------------------------------------------------------------------------------|
G|-----------------------------------------------------------------------------------------------|
C|-----------------------------------------------------------------------------------------------|
F|----7--9h10-9------9------------------10-9---------7--9h10-9------9------------------10-9------|
A|----------------10----10-8----8-10-----------------------------10----10-8----8-10--------------|
D|-----------------------------------------------------------------------------------------------|
 |                                                                                               |
 |                                                                                               |
 |                                         (Guitar 2)                                            |
d|-----------------------------------------------------------------------------------------------|
G|----13--15h17-15---15---------------17-15-13-------13--15h17-15---15-----------------17-15-13--|
C|-----------------16---16-14---14-16-----------------------------16---16-14---14-16-------------|
F|-----------------------------------------------------------------------------------------------|
A|-----------------------------------------------------------------------------------------------|
D|-----------------------------------------------------------------------------------------------|
										   
										   
Solo:
                                           (Guitar 1)
d|-----------------------------------------------------------------------------------------------|
G|-----------------------------------------------------------------------------------------------|
C|-----------------------------------------------------------------------------------------------|
F|10-10-10-10-10-10-10-10-10-10-10-10-10-10-10-10-5--5--5--5--5--5--5--5--5--5--5--5--5--5--5--5-|
A|10-10-10-10-10-10-10-10-10-10-10-10-10-10-10-10-5--5--5--5--5--5--5--5--5--5--5--5--5--5--5--5-|
D|8--8--8--8--8--8--8--8--8--8--8--8--8--8--8--8--3--3--3--3--3--3--3--3--3--3--3--3--3--3--3--3-|
 |pm .  .  .  .  .  .  .  .  .  .  .  .  .  .  .  .  .  .  .  .  .  .  .  .  .  . . . .  .  .  . |
 |                                                                                               |
 |                                         (Guitar 2)                                            |
d|-----------------------------------------------------------------------------------------------|
G|------------------------------------20-18-------------------------------------------20---------|
C|17-20-19-20-22-20-19-20-17-20-19-20-------19-20-17-20-19-20-22-20-19-20-17-20-19-22----22-19-20|
F|-----------------------------------------------------------------------------------------------|
A|-----------------------------------------------------------------------------------------------|
D|-----------------------------------------------------------------------------------------------|



d|-----------------------------------------------------------------------------------------------|
G|-----------------------------------------------------------------------------------------------|
C|-----------------------------------------------------------------------------------------------|
F|6--6--6--6--6--6--6--6--6--6--6--6--6--6--6--6--8--8--8--8--8--8--8--8--8--8--8--8--8--8--8--8-|
A|6--6--6--6--6--6--6--6--6--6--6--6--6--6--6--6--8--8--8--8--8--8--8--8--8--8--8--8--8--8--8--8-|
D|4--4--4--4--4--4--4--4--4--4--4--4--4--4--4--4--6--6--6--6--6--6--6--6--6--6--6--6--6--6--6--6-|
 |pm  .  .  .  .  .  .  .  .  .  .  .  .  .  .  .  .  .  .  .  .  .  .  .  .  .  .  .  .  .  .  .|
 |                                                                                               |
 |                                         (Guitar 2)                                            |
d|-----------------------------------------------------------------------------------------------|
G|------------------------------------20-18-------------------------------------------20---------|
C|17-20-19-20-22-20-19-20-17-20-19-20-------19-20-17-20-19-20-22-20-19-20-17-20-19-22----22-19-20|
F|-----------------------------------------------------------------------------------------------|
A|-----------------------------------------------------------------------------------------------|
D|-----------------------------------------------------------------------------------------------|


                                           (Guitar 1)
d|-----------------------------------------------------------------------------------------------|
G|-----------------------------------------------------------------------------------------------|
C|-----------------------------------------------------------------------------------------------|
F|10-10-10-10-10-10-10-10-10-10-10-10-10-10-10-10-5--5--5--5--5--5--5--5--5--5--5--5--5--5--5--5-|
A|10-10-10-10-10-10-10-10-10-10-10-10-10-10-10-10-5--5--5--5--5--5--5--5--5--5--5--5--5--5--5--5-|
D|8--8--8--8--8--8--8--8--8--8--8--8--8--8--8--8--3--3--3--3--3--3--3--3--3--3--3--3--3--3--3--3-|
 |pm .  .  .  .  .  .  .  .  .  .  .  .  .  .  .  .  .  .  .  .  .  .  .  .  .  . . . .  .  .  . |
 |                                                                                               |
 |                                         (Guitar 2)                                            |
d|-----------------------------------------------------------------------------------------------|
G|------------------------------------20-18-------------------------------------------20---------|
C|17-20-19-20-22-20-19-20-17-20-19-20-------19-20-17-20-19-20-22-20-19-20-17-20-19-22----22-19-20|
F|-----------------------------------------------------------------------------------------------|
A|-----------------------------------------------------------------------------------------------|
D|-----------------------------------------------------------------------------------------------|



d|-----------------------------------------------------------------------------------------------|
G|-----------------------------------------------------------------------------------------------|
C|-----------------------------------------------------------------------------------------------|
F|6--6--6--6--6--6--6--6--6--6--6--6--6--6--6--6--8--8--8--8--8--8--8--8--8--8--8--8--8--8--8--8-|
A|6--6--6--6--6--6--6--6--6--6--6--6--6--6--6--6--8--8--8--8--8--8--8--8--8--8--8--8--8--8--8--8-|
D|4--4--4--4--4--4--4--4--4--4--4--4--4--4--4--4--6--6--6--6--6--6--6--6--6--6--6--6--6--6--6--6-|
 |pm  .  .  .  .  .  .  .  .  .  .  .  .  .  .  .  .  .  .  .  .  .  .  .  .  .  .  .  .  .  .  .|
 |                                                                                               |
 |                                         (Guitar 2)                                            |
d|-----------------------------------------------------------------------------------------------|
G|------------------------------------20-18-------------------------------------------20---------|
C|17-20-19-20-22-20-19-20-17-20-19-20-------19-20-17-20-19-20-22-20-19-20-17-20-19-22----22-19-20|
F|-----------------------------------------------------------------------------------------------|
A|-----------------------------------------------------------------------------------------------|
D|-----------------------------------------------------------------------------------------------|


                                           (Guitar 1)
d|-----------------------------------------------------------------------------------------------|
G|-----------------------------------------------------------------------------------------------|
C|-----------------------------------------------------------------------------------------------|
F|10-10-10-10-10-10-10-10-10-10-10-10-10-10-10-10-5--5--5--5--5--5--5--5--5--5--5--5--5--5--5--5-|
A|10-10-10-10-10-10-10-10-10-10-10-10-10-10-10-10-5--5--5--5--5--5--5--5--5--5--5--5--5--5--5--5-|
D|8--8--8--8--8--8--8--8--8--8--8--8--8--8--8--8--3--3--3--3--3--3--3--3--3--3--3--3--3--3--3--3-|
 |pm .  .  .  .  .  .  .  .  .  .  .  .  .  .  .  .  .  .  .  .  .  .  .  .  .  . . . .  .  .  . |
 |                                                                                               |
 |                                         (Guitar 2)                                            |
d|-----------------------------------------------------------------------------------------------|
G|------------------------------------22-------------------------------------------20-22-18------|
C|17-20-19-20-22-20-19-20-17-20-19-22----22-19-20-17-20-19-20-22-20-19-20-17-20-19----------19-20|
F|-----------------------------------------------------------------------------------------------|
A|-----------------------------------------------------------------------------------------------|
D|-----------------------------------------------------------------------------------------------|


                                           (Guitar 1)
d|-----------------------------------------------------------------------------------------------|
G|-----------------------------------------------------------------------------------------------|
C|-----------------------------------------------------------------------------------------------|
F|6--6--6--6--6--6--6--6--6--6--6--6--6--6--6--6--8--8--8--8--8--8--8--8--8--8--8--8--8--8--8--8-|
A|6--6--6--6--6--6--6--6--6--6--6--6--6--6--6--6--8--8--8--8--8--8--8--8--8--8--8--8--8--8--8--8-|
D|4--4--4--4--4--4--4--4--4--4--4--4--4--4--4--4--6--6--6--6--6--6--6--6--6--6--6--6--6--6--6--6-|
 |pm  .  .  .  .  .  .  .  .  .  .  .  .  .  .  .  .  .  .  .  .  .  .  .  .  .  .  .  .  .  .  .|
 |                                                                                               |
 |                                         (Guitar 2)                                            |
d|-----------------------------------------------------------------------------------------------|
G|------------------------------------22-------------------------------------------20-22-18------|
C|17-20-19-20-22-20-19-20-17-20-19-22----22-19-20-17-20-19-20-22-20-19-20-17-20-19----------19-20|
F|-----------------------------------------------------------------------------------------------|
A|-----------------------------------------------------------------------------------------------|
D|-----------------------------------------------------------------------------------------------|


                                           (Guitar 1)
d|-----------------------------------------------------------------------------------------------|
G|-----------------------------------------------------------------------------------------------|
C|-----------------------------------------------------------------------------------------------|
F|10-10-10-10-10-10-10-10-10-10-10-10-10-10-10-10-5--5--5--5--5--5--5--5--5--5--5--5--5--5--5--5-|
A|10-10-10-10-10-10-10-10-10-10-10-10-10-10-10-10-5--5--5--5--5--5--5--5--5--5--5--5--5--5--5--5-|
D|8--8--8--8--8--8--8--8--8--8--8--8--8--8--8--8--3--3--3--3--3--3--3--3--3--3--3--3--3--3--3--3-|
 |pm .  .  .  .  .  .  .  .  .  .  .  .  .  .  .  .  .  .  .  .  .  .  .  .  .  . . . .  .  .  . |
 |                                                                                               |
 |                                         (Guitar 2)                                            |
d|-----------------------------------------------------------------------------------------------|
G|------------------------------------22-------------------------------------------20-22-18------|
C|17-20-19-20-22-20-19-20-17-20-19-22----22-19-20-17-20-19-20-22-20-19-20-17-20-19----------19-20|
F|-----------------------------------------------------------------------------------------------|
A|-----------------------------------------------------------------------------------------------|
D|-----------------------------------------------------------------------------------------------|


                                           (Guitar 1)
d|-----------------------------------------------------------------------------------------------|
G|-----------------------------------------------------------------------------------------------|
C|-----------------------------------------------------------------------------------------------|
F|6--6--6--6--6--6--6--6--6--6--6--6--6--6--6--6--8--8--8--8--8--8--8--8--8--8--8--8--8--8--8--8-|
A|6--6--6--6--6--6--6--6--6--6--6--6--6--6--6--6--8--8--8--8--8--8--8--8--8--8--8--8--8--8--8--8-|
D|4--4--4--4--4--4--4--4--4--4--4--4--4--4--4--4--6--6--6--6--6--6--6--6--6--6--6--6--6--6--6--6-|
 |pm  .  .  .  .  .  .  .  .  .  .  .  .  .  .  .  .  .  .  .  .  .  .  .  .  .  .  .  .  .  .  .|
 |                                                                                               |
 |                                         (Guitar 2)                                            |
d|-----------------------------------------------------------------------------------------------|
G|---17-20p19p17----------------20p19p17----------------20p19p17-------------20p19p17------------|
C|17-------------17-22p20p17-17----------17-22p20p17-17----------17-22p20p17----------17h19p17---|
F|--------------------------------------------------------------------------------------------19~|
A|-----------------------------------------------------------------------------------------------|
D|-----------------------------------------------------------------------------------------------|


                                           (Guitar 1)
d|-----------------------------------------------------------------------------------------------|
G|-----------------------------------------------------------------------------------------------|
C|-----------------------------------------------------------------------------------------------|
F|7-----------2-----------3------------5------------7-----------------2--------3-------5---------|
A|7-----------2-----------3------------5------------7-----------------2--------3-------5---------|
D|5-----------0-----------1------------3------------5-----------------0--------1-------3---------|
 |                                                                                               |
 |                                                                                               |
 |                                         (Guitar 2)                                            |
d|--------------------------------------------------17^--17~--20^-20~-20p19p17-15h19p15-15-15-17\|
G|-------------------------------------------15^-15~---------------------------------------------|
C|-----------------------------------------------------------------------------------------------|
F|7~-10^-9-10-9-5~-15^-14-15-14-12-15^-14-15-----------------------------------------------------|
A|-----------------------------------------------------------------------------------------------|
D|-----------------------------------------------------------------------------------------------|


Pre-Verse:
                                           (Guitar 1)
d|-----------------------------------------------------------------------------------------------|
G|-----------------------------------------------------------------------------------------------|
C|-----------------------------------------------------------------------------------------------|
F|777----10--9--7-10-9--------10--9--9-9-9-10~--------------------------------10--9--7-10-9------|
A|777--00--00-00-0--0-0-10~-00--00-00-0-0-0---00-10-10\8-00-10-10\8-00-8/10-00--00-00-0--0-0-10~-|
D|555--------------------------------------------------------------------------------------------|
 |pm   ..  .. .. .  . .     ..  .. .. . . .   ..         ..         ..      ..  .. .. .  . .     |
 |                                                                                               |
 |                                         (Guitar 2)                                            |
d|-----------------------------------------------------------------------------------------------|
G|-----------------------------------------------------------------------------------------------|
C|-----------------------------------------------------------------------------------------------|
F|-777----------------------777-------------------9--9\7-----9--9\7----7/-9---10--9--7-10-9------|
A|-777----------------------777---------------00-10-10\8-00-10-10\8-00-8/10-00--00-00-0--0-0-10~-|
D|-555----------------------555------------------------------------------------------------------|
PM                                            ..         ..         ..      ..  .. .. .  . .


Verse:
                                           (Guitar 1)
d|----------------------------------------------------------------------------------------------|
G|----------------------------------------------------------------------------------------------|
C|----------------------------------------------------------------------------------------------|
F|----10--9--7-10-9----------10--9--------------------------------------------10--9-------------|
A|--00--00-00-0--0-0-10~-1010--00-00-7sh-8sh-00-10-10\8-00-10-10\8-00-8/10-00---00-00-8sh-10sh--|
D|----------------------------------------------------------------------------------------------|
 |pm..  .. .. .  . .           .. ..         ..         ..         ..      ..   .. ..           |
 |                                                                                              |
 |                                         (Guitar 2)                                           |
d|----------------------------------------------------------------------------------------------|
G|----------------------------------------------------------------------------------------------|
C|----------------------------------------------------------------------------------------------|
F|----10--9--7-10-9----------10--9--9-9-9-10~----9--9\7-----9--9\7----7/-9----10--9--7-10-9-----|
A|--00--00-00-0--0-0-10~-1010--00-00-0-0-0---00-10-10\8-00-10-10\8-00-8/10-00---00-00-0--0-0-10~|
D|----------------------------------------------------------------------------------------------|
  pm..  .. .. .  . .           .. .. . . .   ..         ..         ..      ..   .. .. .  . .


Chorus:
                                           (Guitar 1)
d|-----------------------------------------------------------------------------------------------|
G|-----------------------------------------------------------------------------------------------|
C|-----------------------------------------------------------------------------------------------|
F|--222---222222222---22222222---22222222---2222---222---222222222---22222222---22222222---2222--|
A|--222---222222222---22222222---22222222---2222---222---222222222---22222222---22222222---2222--|
D|--000---000000000---00000000---00000000---0000---000---000000000---00000000---00000000---0000--|
 |pm...   .........   ........   ........   ....   ...   .........   ........   ........   ....  |
 |                                                                                               | x2
 |                                         (Guitar 2)                                            |
d|-----------------------------------------------------------------------------------------------|
G|-----------------------------------------------------------------------------------------------|
C|-----------------------------------------------------------------------------------------------|
F|--------9-----------10---------7-----------------------9-----------10---------7----------------|
A|--0h7h9---0h7h9--------0h7h9-----0h7h9----10-----0h7h9---0h7h9--------0h7h9-----0h7h9----10----|
D|-----------------------------------------------------------------------------------------------|

                            (Guitar 1)
d|-------------------------------------------------------------------|
G|-------------------------------------------------------------------|
C|-------------------------------------------------------------------|
F|-------------------------------------------------------------------|
A|--------2-2-2---------5--4--5----------2-2-2----5---x-7------7--7--|
D|--0-0-0-0-0-0---0-0-0-3--2--3----0-0-0-0-0-0----3---x-5------5--5--|
 |pm. . .         . . .            . . .              .              |
 |                                                                   | x2
 |                           (Guitar 2)                              |
d|-------------------------------------------------------------------|
G|-------------------------------------------------------------------|
C|------------------------------------------------9-7----------------|
F|--------9--------10-9------------------9------------10-9-10-9------|
A|--0-7-9---10-9--------10-9-10-9--0-7-9---10-9-----------------10-9-|
D|-------------------------------------------------------------------|


Interlude/Outro:
                                           (Guitar 1)
d|-----------------------------------------------------------------------------------------------|
G|-----------------------------------------------------------------------------------------------|
C|-----------------------4---------5--------4---------5--------4---------5--------4--------5-----|
F|-----------------------4---------5--------4---------5--------4---------5--------4--------5---2-|
A|--3-2-0---3-2-0---2-0--2---------3---2-0--2---------3---2-0--2---------3---2-0--2--------3---2-|
D|--1-0-0---1-0-0---0-0------0-0-------0-0------0-0-------0-0------0-0-------0-0------0-0------0-|
 |                                                                                               |
 |                                                                                               |
 |                                         (Guitar 2)                                            |
d|-----------------------------------------------------------------------------------------------|
G|-----------------------------------------------------------------------------------------------|
C|-----------------------4---------5--------4---------5--------4---------5--------4--------5-----|
F|-----------------------4---------5--------4---------5--------4---------5--------4--------5---2-|
A|--3-2-0---3-2-0---2-0--2---------3---2-0--2---------3---2-0--2---------3---2-0--2--------3---2-|
D|--1-0-0---1-0-0---0-0------0-0-------0-0------0-0-------0-0------0-0-------0-0------0-0------0-|


                                           (Guitar 1)
d|-----------------------------------------------------------------------------------------------|
G|-----------------------------------------------------------------------------------------------|
C|------4------5-------4------5-------4------5-------4------5----------4------5-------4------5---|
F|------4------5-------4------5-------4------5-------4------5--2-------4------5-------4------5---|
A|--2-0-2------3---2-0-2------3---2-0-2------3---2-0-2------3--2---2-0-2------3---2-0-2------3---|
D|--0-0---00-------0-0---00-------0-0---00-------0-0---00------0---0-0---00-------0-0---00-------|
 |                                                                                               |
 |                                                                                               |
 |                                         (Guitar 2)                                            |
d|-----------------------------------------------------------------------------------------------|
G|-----------------------------------------------------------------------------------------------|
C|------4------5-------4------5-------4------5-------4------5----------4------5-------4------5---|
F|------4------5-------4------5-------4------5-------4------5--2-------4------5-------4------5---|
A|--2-0-2------3---2-0-2------3---2-0-2------3---2-0-2------3--2---2-0-2------3---2-0-2------3---|
D|--0-0---00-------0-0---00-------0-0---00-------0-0---00------0---0-0---00-------0-0---00-------|


                               (Guitar 1)
d|----------------------------------------------------------------------|
G|----------------------------------------------------------------------|
C|-----4------5------4------5------4------5------4------5------4------5-|
F|-----4------5------4------5------4------5------4------5------4------5-|
A|-2-0-2------3--2-0-2------3--2-0-2------3--2-0-2------3--2-0-2------3-|
D|-0-0---00------0-0---00------0-0---00------0-0---00------0-0---00-----|
 |                                                                      |
 |                                                                      |
 |                             (Guitar 2)                               |
d|----------------------------------------------------------------------|
G|----------------------------------------------------------------------|
C|-----4------5------4------5------4------5------4------5------4------5-|
F|-----4------5------4------5------4------5------4------5------4------5-|
A|-2-0-2------3--2-0-2------3--2-0-2------3--2-0-2------3--2-0-2------3-|
D|-0-0---00------0-0---00------0-0---00------0-0---00------0-0---00-----|
16 comments total. Showing first comments.
0 reply
Necronomicon wrote on March 23 2005, 12:00 am

Finally I've been looking for that tab forever

0 reply
high voltage wrote on March 23 2005, 12:00 am

It's all right! Good Job!

0 reply
Sumfartyuno wrote on March 28 2005, 12:00 am

and... wtf is sh?

I want to post or [tab]
guest
You may want to rate the tab now too:
select rating
Please do not post tabs as comments. Select "correction" instead!