Oops, an error
Loading. Please wait.

Alipin Tab

ver4
ver4

Intro

Solo

Whole song

Interactive

More versions @911Tabs.com
14,108 views 30 this week
3 commentsread comments
1 2 3 4 5
worth learning
x 2
Autoscroll
+/-
esc
set tempo
stop
Contributor
Difficulty
intermediate
WARNING: You are trying to view
                                    content from Ultimate-Guitar.com
                                    in an unauthorized application,
                                    which is prohibited.

                                    Please use an official Ultimate
                                    Guitar Tabs application for iPhone,
                                    iPad or Android to access legitimate
                                    chords, guitar, bass, and drum tabs
                                    from Ultimate-Guitar.com database.

                                    Type "ultimate guitar tabs" in Apple
                                    App Store's or Android Market's
                                    search to find the application.
  Alipin                                      

SHAMROCK
                                                                        Shamrock
Track 1
tabbed by:renato diocales boy#11 st.sebastian pcs


     Q    E  Q    E  E   E      Q    E  Q.     Q       Q    Q    E  E  E  E   
E||----------3---------------|----------2------0----|--L------------------0--|
B||--3------------3----------|--3--------------0----|--L---------0-----------|
G||--0---------------0-------|--0-------------------|---------------0--------|
D||-------0-------------(0)--|-------0---------2----|--L----2----------2-----|
A||--------------------------|--2--------------3----|--L---------------------|
E||--3-----------------------|----------------------|------------------------|


  E  E  E  E  E  E  Q       Q    E  Q    E  E   E      Q    E  Q.     Q     
--L----------------------|----------3---------------|----------2------0----|
-----3--------0----------|--3------------3----------|--3--------------0----|
--------0--------0-------|--0---------------0-------|--0-------------------|
-----------2--------2----|-------0-------------(0)--|-------0---------2----|
-------------------------|--------------------------|--2--------------3----|
-------------------------|--3-----------------------|----------------------|


  Q    Q    E  E  E  E     E  E  E  E  E   E  Q       Q.     E  Q    Q     
--L------------------0--|--L-----------------------|----------------------|
--L---------0-----------|-----3--------3p--0-------|--3------3--x----3----|
---------------0--------|--------0------------0----|--2------2--x----0----|
--L----2----------2-----|-----------2--------------|----------------------|
--L---------------------|--------------------------|----------------------|
------------------------|--------------------------|--3------3--x----3----|


  Q    Q    Q     Q        Q.     E  Q    Q       Q    Q    Q     Q      
------------------------|----------------------|------------------------|
--L---------3-----------|--3------3--x----3----|--L---------3-----------|
--L---------0-----------|--2------2--x----0----|--L---------0-----------|
-------0---------(0)----|----------------------|-------0---------(0)----|
------------------------|--2------2--x----2----|--L---------------------|
--L---------------------|----------------------|------------------------|


  Q.     E  Q    Q       Q    Q    Q     Q        Q.     E  Q    Q     
-----------------0----|--L---------------------|-----------------0----|
--3------3--x----3----|--L---------3-----------|--1------1--x----3----|
--0------0--x---------|------------0-----------|--2------2--x---------|
----------------------|-------2---------(2)----|--0------0--x----0----|
--3------3--x----3----|--L---------------------|----------------------|
----------------------|------------------------|----------------------|


  Q    Q    Q     Q        Q.     E  Q    Q       Q    Q    Q     Q      
--L---------------------|----------------------|------------------------|
--L---------3-----------|--3------3--x----3----|--L---------3-----------|
------------2-----------|--2------2--x----0----|--L---------0-----------|
--L----0---------(0)----|----------------------|-------0---------(0)----|
------------------------|----------------------|------------------------|
------------------------|--3------3--x----3----|--L---------------------|


  Q.     E  Q    Q       Q    Q    Q     Q        Q.     E  Q    Q     
----------------------|------------------------|-----------------0----|
--3------3--x----3----|--L---------3-----------|--3------3--x----3----|
--2------2--x----0----|--L---------0-----------|--0------0--x---------|
----------------------|-------0---------(0)----|----------------------|
--2------2--x----2----|--L---------------------|--3------3--x----3----|
----------------------|------------------------|----------------------|


  Q    Q    Q     Q        Q.     E  Q    Q       Q    Q    Q     Q      
--L---------------------|-----------------0----|--L---------------------|
--L---------3-----------|--1------1--x----3----|--L---------3-----------|
------------0-----------|--2------2--x---------|------------2-----------|
-------2---------(2)----|--0------0--x----0----|--L----0---------(0)----|
--L---------------------|----------------------|------------------------|
------------------------|----------------------|------------------------|


  Q    E  E  Q    Q       Q    Q    Q     Q        Q    E  E  Q    Q     
------------------0----|--L---------------------|-----------------------|
--1----------1---------|------------1-----------|--0-------0--x----0----|
--0-------0------------|------------0-----------|--2-------2--x----0----|
-------2---------------|-------2---------(2)----|-------0---------------|
--0--------------------|------------------------|-----------------------|
-----------------------|------------------------|--3--------------------|


  Q    Q    Q     Q        Q    Q    Q    Q       Q    Q    Q     Q      
------------------------|--0----0----x---------|------------------------|
--L---------0-----------|--1----0----x----1----|--L---------1-----------|
--L---------0-----------|-----------------0----|--L---------0-----------|
-------0---------(0)----|----------------------|-------2---------(2)----|
------------------------|--0----0----x----0----|--L---------------------|
------------------------|----------------------|------------------------|


  Q.     E  Q    Q       Q    Q    Q     Q        Q.     E  Q    Q     
-----------------0----|--L---------------------|--3------3--x----2----|
--1------1--x----3----|--L---------3-----------|--3------3--x----3----|
--2------2--x---------|------------2-----------|----------------------|
--0------0--x----0----|--L----0---------(0)----|--0------0--x----0----|
----------------------|------------------------|----------------------|
----------------------|------------------------|----------------------|


  Q    Q    Q     Q        Q.     E  Q    Q       Q    Q    Q     Q      
--L---------2-----------|-----------------0----|--L---------------------|
--L---------3-----------|--0------0--x----0----|--L---------0-----------|
------------------------|--0------0--x---------|------------0-----------|
--L----0---------(0)----|----------------------|-------2---------(2)----|
------------------------|--3------3--x----3----|--L---------------------|
------------------------|----------------------|------------------------|


  Q.     E  Q    Q       Q    Q    Q     Q        Q.     E  Q    Q     
-----------------0----|--L---------------------|-----------------0----|
--3------3--x----3----|--L---------3-----------|--3------3--x----3----|
--0------0--x---------|------------0-----------|--0------0--x---------|
----------------------|-------0---------(0)----|----------------------|
--2------2--x----2----|--L---------------------|--3------3--x----3----|
----------------------|------------------------|----------------------|


  Q    Q    Q     Q        Q    E  E  Q    Q       Q    Q    Q    Q     
--L---------------------|------------------0----|--L-------------------|
--L---------3-----------|-------------0---------|------------0---------|
------------0-----------|-----------------------|----------------------|
-------2---------(2)----|--4-------4------------|-------4---------4----|
--L---------------------|-------2---------------|----------------------|
------------------------|--0--------------------|----------------------|


  Q     E   E  Q    Q       Q    Q    Q    Q       Q    E  E  Q    Q     
--------------------0----|--L-------------------|-----------------------|
--0------------0---------|------------0---------|--0-------0--x----0----|
--0---------0------------|------------0---------|--2-------2--x----0----|
-------(0)---------------|-------0---------0----|-------0---------------|
--2----------------------|----------------------|-----------------------|
-------------------------|----------------------|--3--------------------|


  Q    Q    Q     Q        Q    Q    Q    Q       Q    Q    Q     Q      
------------------------|--0----0----x---------|------------------------|
--L---------0-----------|--1----0----x----1----|--L---------1-----------|
--L---------0-----------|-----------------0----|--L---------0-----------|
-------0---------(0)----|----------------------|-----------------(2)----|
------------------------|--2----2----x----2----|--L----2----------------|
------------------------|----------------------|------------------------|


  Q.     E  Q    Q       Q    Q    Q     Q        Q    E  Q    E  E   E    
-----------------0----|--L---------------------|----------3---------------|
--1------1--x----3----|--L---------3-----------|--3------------3----------|
--2------2--x---------|------------2-----------|--0---------------0-------|
--0------0--x----0----|--L----0---------(0)----|-------0-------------(0)--|
----------------------|------------------------|--------------------------|
----------------------|------------------------|--3-----------------------|


  Q    E  Q.     Q       Q    Q    E  E  E  E     E  E  E   E   E  E  Q     
----------2------0----|--L------------------0--|--L------------------------|
--3--------------0----|--L---------0-----------|-----3----------------0----|
--0-------------------|---------------0--------|--------0----------0-------|
-------0---------2----|--L----2----------2-----|-----------(2)--2----------|
--2--------------3----|--L---------------------|---------------------------|
----------------------|------------------------|---------------------------|


  Q    E  Q    E  E   E      Q    E  Q.     Q       Q    Q    E  E  E  E   
----------3---------------|----------2------0----|--L------------------0--|
--3------------3----------|--3--------------0----|--L---------0-----------|
--0---------------0-------|--0-------------------|---------------0--------|
-------0-------------(0)--|-------0---------2----|--L----2----------2-----|
--------------------------|--2--------------3----|--L---------------------|
--3-----------------------|----------------------|------------------------|


                  NH    NH    NH                           
  E  E   E  E     E     E     Q       Q.     E  Q    Q     
--L------------------------<>12----|----------------------|
-----3p--0-----------<>12----------|--3------3--x----3----|
---------------<>12----------------|--2------2--x----0----|
------------2----------------------|----------------------|
-----------------------------------|----------------------|
-----------------------------------|--3------3--x----3----|


  Q    Q    Q     Q        Q.     E  Q    Q       Q    Q    Q     Q      
------------------------|----------------------|------------------------|
--L---------3-----------|--3------3--x----3----|--L---------3-----------|
--L---------0-----------|--2------2--x----0----|--L---------0-----------|
-------0---------(0)----|----------------------|-------0---------(0)----|
------------------------|--2------2--x----2----|--L---------------------|
--L---------------------|----------------------|------------------------|


  Q.     E  Q    Q       Q    Q    Q     Q        Q.     E  Q    Q     
-----------------0----|--L---------------------|-----------------0----|
--3------3--x----3----|--L---------3-----------|--1------1--x----3----|
--0------0--x---------|------------0-----------|--2------2--x---------|
----------------------|-------2---------(2)----|--0------0--x----0----|
--3------3--x----3----|--L---------------------|----------------------|
----------------------|------------------------|----------------------|


  Q    Q    Q     Q        Q.     E  Q    Q       Q    Q    Q     Q      
--L---------------------|----------------------|------------------------|
--L---------3-----------|--3------3--x----3----|--L---------3-----------|
------------2-----------|--2------2--x----0----|--L---------0-----------|
--L----0---------(0)----|----------------------|-------0---------(0)----|
------------------------|----------------------|------------------------|
------------------------|--3------3--x----3----|--L---------------------|


  Q.     E  Q    Q       Q    Q    Q     Q        Q.     E  Q    Q     
----------------------|------------------------|-----------------0----|
--3------3--x----3----|--L---------3-----------|--3------3--x----3----|
--2------2--x----0----|--L---------0-----------|--0------0--x---------|
----------------------|-------0---------(0)----|----------------------|
--2------2--x----2----|--L---------------------|--3------3--x----3----|
----------------------|------------------------|----------------------|


  Q    Q    Q     Q        Q.     E  Q    Q       Q    Q    Q     Q      
--L---------------------|-----------------0----|--L---------------------|
--L---------3-----------|--1------1--x----3----|--L---------3-----------|
------------0-----------|--2------2--x---------|------------2-----------|
-------2---------(2)----|--0------0--x----0----|--L----0---------(0)----|
--L---------------------|----------------------|------------------------|
------------------------|----------------------|------------------------|


  Q    E  E  Q    Q       Q    Q    Q     Q        Q    E  E  Q    Q     
------------------0----|--L---------------------|-----------------------|
--1----------1---------|------------1-----------|--0-------0--x----0----|
--0-------0------------|------------0-----------|--2-------2--x----0----|
-------2---------------|-------2---------(2)----|-------0---------------|
--0--------------------|------------------------|-----------------------|
-----------------------|------------------------|--3--------------------|


  Q    Q    Q     Q        Q    Q    Q    Q       Q    Q    Q     Q      
------------------------|--0----0----x---------|------------------------|
--L---------0-----------|--1----0----x----1----|--L---------1-----------|
--L---------0-----------|-----------------0----|--L---------0-----------|
-------0---------(0)----|----------------------|-------2---------(2)----|
------------------------|--0----0----x----0----|--L---------------------|
------------------------|----------------------|------------------------|


  Q.     E  Q    Q       Q    Q    Q     Q        Q.     E  Q    Q     
-----------------0----|--L---------------------|--3------3--x----2----|
--1------1--x----3----|--L---------3-----------|--3------3--x----3----|
--2------2--x---------|------------2-----------|----------------------|
--0------0--x----0----|--L----0---------(0)----|--0------0--x----0----|
----------------------|------------------------|----------------------|
----------------------|------------------------|----------------------|


  Q    Q    Q     Q        Q.     E  Q    Q       Q    Q    Q     Q      
--L---------2-----------|-----------------0----|--L---------------------|
--L---------3-----------|--0------0--x----0----|--L---------0-----------|
------------------------|--0------0--x---------|------------0-----------|
--L----0---------(0)----|----------------------|-------2---------(2)----|
------------------------|--3------3--x----3----|--L---------------------|
------------------------|----------------------|------------------------|


  Q.     E  Q    Q       Q    Q    Q     Q        Q.     E  Q    Q     
-----------------0----|--L---------------------|-----------------0----|
--3------3--x----3----|--L---------3-----------|--3------3--x----3----|
--0------0--x---------|------------0-----------|--0------0--x---------|
----------------------|-------0---------(0)----|----------------------|
--2------2--x----2----|--L---------------------|--3------3--x----3----|
----------------------|------------------------|----------------------|


  Q    Q    Q     Q        Q    E  E  Q    Q       Q    Q    Q    Q     
--L---------------------|------------------0----|--L-------------------|
--L---------3-----------|-------------0---------|------------0---------|
------------0-----------|-----------------------|----------------------|
-------2---------(2)----|--4-------4------------|-------4---------4----|
--L---------------------|-------2---------------|----------------------|
------------------------|--0--------------------|----------------------|


  Q     E   E  Q    Q       Q    Q    Q    Q       Q    E  E  Q    Q     
--------------------0----|--L-------------------|-----------------------|
--0------------0---------|------------0---------|--0-------0--x----0----|
--0---------0------------|------------0---------|--2-------2--x----0----|
-------(0)---------------|-------0---------0----|-------0---------------|
--2----------------------|----------------------|-----------------------|
-------------------------|----------------------|--3--------------------|


  Q    Q    Q     Q        Q    Q    Q    Q       Q    Q    Q     Q      
------------------------|--0----0----x---------|------------------------|
--L---------0-----------|--1----0----x----1----|--L---------1-----------|
--L---------0-----------|-----------------0----|--L---------0-----------|
-------0---------(0)----|----------------------|-----------------(2)----|
------------------------|--2----2----x----2----|--L----2----------------|
------------------------|----------------------|------------------------|


                                                  ^      v  ^  v  ^     
  Q.     E  Q    Q       Q    Q    Q     Q        Q.     E  E  E  Q     
-----------------0----|--L---------------------|--3------3--x----------|
--1------1--x----3----|--L---------3-----------|--3------3--x--3--3----|
--2------2--x---------|------------2-----------|--0------0--0--0--0----|
--0------0--x----0----|--L----0---------(0)----|--0---------0--x--0----|
----------------------|------------------------|--2---------------2----|
----------------------|------------------------|--3---------------3----|


     v  ^  v  ^  v  ^  v     ^      v  ^  v  ^          v  ^  v  ^  v  ^  v   
  E  E  E  E  E  E  E  E     Q.     E  E  E  Q       E  E  E  E  E  E  E  E   
-----3--x-----3-----------|--0------0--x----------|-----0--x-----0-----------|
--L--3--3--3--3--3--3--x--|--3------3--x--3--3----|--L--3--3--3--3--3--3--x--|
--L--0--0--0--0--0--0--0--|--2------2--2--2--2----|--L--2--2--2--2--2--2--2--|
--L-----x--0-----0--0--0--|--0---------0--x--0----|--L-----x--0-----0--0--0--|
--L--------------------2--|-----------------------|--------------------------|
--L-----------------------|-----------------------|--------------------------|


  ^      v  ^  v  ^          v  ^  v  ^  v  ^  v     ^      v  ^  v  ^     
  Q.     E  E  E  Q       E  E  E  E  E  E  E  E     Q.     E  E  E  Q     
--0------0--x----------|-----0--x-----0-----------|--2------2--x----------|
--0------0--x--0--3----|--L--0--0--0--0--0--0--x--|--3------3--x--3--3----|
--0------0--0--0--0----|--L--0--0--0--0--0--0--0--|--2------2--2--2--2----|
--2---------2--x--2----|--L-----x--2-----2--2--2--|--4---------4--x--4----|
--2---------------2----|--L--------------------2--|--2---------------2----|
--0---------------0----|--L-----------------------|-----------------------|


     v  ^  v  ^  v  ^  v     ^      v  ^  v  ^          v  ^  v  ^  v  ^  v   
  E  E  E  E  E  E  E  E     Q.     E  E  E  Q       E  E  E  E  E  E  E  E   
-----2--x-----2-----------|--0------0--x----------|-----0--x-----0-----------|
--L--3--3--3--3--3--3--x--|--0------0--x--0--3----|--L--0--0--0--0--0--0--x--|
--L--2--2--2--2--2--2--2--|--0------0--0--0--0----|--L--0--0--0--0--0--0--0--|
--L-----x--4-----4--4--4--|--0---------0--x--0----|--L-----x--0-----0--0--0--|
--L--------------------2--|--2---------------2----|--L--------------------2--|
--------------------------|--0---------------0----|--L-----------------------|


  ^      v  ^  v  ^          v  ^  v  ^  v  ^  v     ^      v  ^  v  ^     
  Q.     E  E  E  Q       E  E  E  E  E  E  E  E     Q.     E  E  E  Q     
--3------3--x----------|-----3--x-----3-----------|--0------0--x----------|
--3------3--x--3--3----|--L--3--3--3--3--3--3--x--|--1------1--x--1--1----|
--0------0--0--0--0----|--L--0--0--0--0--0--0--0--|--0------0--0--0--0----|
--0---------0--x--0----|--L-----x--0-----0--0--0--|--2---------2--x--2----|
--2---------------2----|--L--------------------2--|--3---------------3----|
--3---------------3----|--L-----------------------|-----------------------|


     v  ^  v  ^  v  ^  v     ^      v  ^  v  ^          v  ^  v  ^  v  ^  v   
  E  E  E  E  E  E  E  E     Q.     E  E  E  Q       E  E  E  E  E  E  E  E   
-----0--x-----0-----------|--0------0--x----------|-----0--x-----0-----------|
--L--1--1--1--1--1--1--x--|--3------3--x--3--3----|--L--3--3--3--3--3--3--x--|
--L--0--0--0--0--0--0--0--|--2------2--2--2--2----|--L--2--2--2--2--2--2--2--|
--L-----x--2-----2--2--2--|--0---------0--x--0----|--L-----x--0-----0--0--0--|
--L--------------------3--|-----------------------|--------------------------|
--------------------------|-----------------------|--------------------------|


  Q.     E  Q    Q       Q    Q    Q     Q        Q.     E  Q    Q     
-----------------0----|--L---------------------|-----------------0----|
--3------3--x----3----|--L---------3-----------|--3------3--x----3----|
--0------0--x---------|------------0-----------|--0------0--x---------|
----------------------|-------2---------(2)----|----------------------|
--3------3--x----3----|--L---------------------|--2------2--x----2----|
----------------------|------------------------|----------------------|


  Q    Q    Q     Q        Q.     E  Q    Q       Q    Q    Q     Q      
--L---------------------|-----------------0----|--L---------------------|
--L---------3-----------|--1------1--x----1----|--L---------1-----------|
------------0-----------|--0------0--x---------|------------0-----------|
-------0---------(0)----|----------------------|-------2---------(2)----|
--L---------------------|--0------0--x----0----|--L---------------------|
------------------------|----------------------|------------------------|


  Q.     E  Q    Q       Q    Q    Q     Q        Q.     E  Q    Q     
-----------------0----|--L---------------------|--3------3--x----2----|
--1------1--x----3----|--L---------3-----------|--3------3--x----3----|
--2------2--x---------|------------2-----------|----------------------|
--0------0--x----0----|--L----0---------(0)----|--0------0--x----0----|
----------------------|------------------------|----------------------|
----------------------|------------------------|----------------------|


  Q    Q    Q     Q        Q.     E  Q    Q       Q    Q    Q     Q      
--L---------2-----------|-----------------0----|--L---------------------|
--L---------3-----------|--0------0--x----0----|--L---------0-----------|
------------------------|--0------0--x---------|------------0-----------|
--L----0---------(0)----|----------------------|-------2---------(2)----|
------------------------|--3------3--x----3----|--L---------------------|
------------------------|----------------------|------------------------|


  Q.     E  Q    Q       Q    Q    Q     Q        Q.     E  Q    Q     
-----------------0----|--L---------------------|-----------------0----|
--3------3--x----3----|--L---------3-----------|--3------3--x----3----|
--0------0--x---------|------------0-----------|--0------0--x---------|
----------------------|-------0---------(0)----|----------------------|
--2------2--x----2----|--L---------------------|--3------3--x----3----|
----------------------|------------------------|----------------------|


  Q    Q    Q     Q        Q    E  E  Q    Q       Q    Q    Q    Q     
--L---------------------|------------------0----|--L-------------------|
--L---------3-----------|-------------0---------|------------0---------|
------------0-----------|-----------------------|----------------------|
-------2---------(2)----|--4-------4------------|-------4---------4----|
--L---------------------|-------2---------------|----------------------|
------------------------|--0--------------------|----------------------|


  Q     E   E  Q    Q       Q    Q    Q    Q       Q    E  E  Q    Q     
--------------------0----|--L-------------------|-----------------------|
--0------------0---------|------------0---------|--0-------0--x----0----|
--0---------0------------|------------0---------|--2-------2--x----0----|
-------(0)---------------|-------0---------0----|-------0---------------|
--2----------------------|----------------------|-----------------------|
-------------------------|----------------------|--3--------------------|


  Q    Q    Q     Q        Q    Q    Q    Q       Q    Q    Q     Q      
------------------------|--0----0----x---------|------------------------|
--L---------0-----------|--1----0----x----1----|--L---------1-----------|
--L---------0-----------|-----------------0----|--L---------0-----------|
-------0---------(0)----|----------------------|-----------------(2)----|
------------------------|--2----2----x----2----|--L----2----------------|
------------------------|----------------------|------------------------|


  Q.     E  Q    Q       Q    Q    Q     Q        Q.     E  Q    Q     
-----------------0----|--L---------------------|-----------------0----|
--1------1--x----3----|--L---------3-----------|--0------0--x----0----|
--2------2--x---------|------------2-----------|--0------0--x---------|
--0------0--x----0----|--L----0---------(0)----|----------------------|
----------------------|------------------------|--3------3--x----3----|
----------------------|------------------------|----------------------|


  Q    Q    Q     Q        Q.     E  Q    Q       Q    Q    Q     Q      
--L---------------------|-----------------0----|--L---------------------|
--L---------0-----------|--3------3--x----3----|--L---------3-----------|
------------0-----------|--0------0--x---------|------------0-----------|
-------2---------(2)----|----------------------|-------0---------(0)----|
--L---------------------|--2------2--x----2----|--L---------------------|
------------------------|----------------------|------------------------|


  Q.     E  Q    Q       Q    Q    Q     Q        Q    E  E  Q    Q     
-----------------0----|--L---------------------|------------------0----|
--3------3--x----3----|--L---------3-----------|-------------0---------|
--0------0--x---------|------------0-----------|-----------------------|
----------------------|-------2---------(2)----|--4-------4------------|
--3------3--x----3----|--L---------------------|-------2---------------|
----------------------|------------------------|--0--------------------|


  Q    Q    Q    Q       Q     E   E  Q    Q       Q    Q    Q    Q     
--L-------------------|--------------------0----|--L-------------------|
------------0---------|--0------------0---------|------------0---------|
----------------------|--0---------0------------|------------0---------|
-------4---------4----|-------(0)---------------|-------0---------0----|
----------------------|--2----------------------|----------------------|
----------------------|-------------------------|----------------------|


  Q    E  E  Q    Q       Q    Q    Q     Q        Q    Q    Q    Q     
-----------------------|------------------------|--0----0----x---------|
--0-------0--x----0----|--L---------0-----------|--1----0----x----1----|
--2-------2--x----0----|--L---------0-----------|-----------------0----|
-------0---------------|-------0---------(0)----|----------------------|
-----------------------|------------------------|--2----2----x----2----|
--3--------------------|------------------------|----------------------|


  Q    Q    Q     Q        Q    H        E   E     Q    H.            
------------------------|--0--------------------|--------------------|
--L---------1-----------|--1----1---------------|--------------------|
--L---------0-----------|-------2---------------|-------0------------|
-----------------(2)----|--0----0--------2s--4--|--L-----------------|
--L----2----------------|-----------------------|--------------------|
------------------------|-----------------------|--------------------|


  W                   Q    E  Q    E  E   E      Q    E  Q.     Q     
-------------------|----------3---------------|----------2------0----|
-------------------|--3------------3----------|--3--------------0----|
--L----------------|--0---------------0-------|--0-------------------|
-------------------|-------0-------------(0)--|-------0---------2----|
-------------------|--------------------------|--2--------------3----|
-------------------|--3-----------------------|----------------------|


  Q    Q    E  E  E  E     E  E  E  E  E  E  Q       Q    E  Q    E  E   E    
--L------------------0--|--L----------------------|----------3---------------|
--L---------0-----------|-----3--------0----------|--3------------3----------|
---------------0--------|--------0--------0-------|--0---------------0-------|
--L----2----------2-----|-----------2--------2----|-------0-------------(0)--|
--L---------------------|-------------------------|--------------------------|
------------------------|-------------------------|--3-----------------------|


  Q    E  Q.     Q       Q    Q    E  E  E  E   
----------2------0----|--L------------------0--|
--3--------------0----|--L---------0-----------|
--0-------------------|---------------0--------|
-------0---------2----|--L----2----------2-----|
--2--------------3----|--L---------------------|
----------------------|------------------------|


                 NH    NH    NH                         
  E  E  E  E     E     E     Q       W                  
--L-----------------------<>12----|--L----------------||
-----3--------------<>12-----L----|--L----------------||
--------0-----<>12-----L-----L----|--L----------------||
-----------2----------------------|-------------------||
----------------------------------|-------------------||
----------------------------------|-------------------||




Duration Legend
---------------
W - whole
H - half
Q - quarter
E - 8th
S - 16th
T - 32nd
X - 64th
. - note dotted
|-n-|  - n-tuplets


Tablature Legend
----------------
L - tied note
x - dead note
g - grace note
(n) - ghost note
> - accentuded note
NH - natural harmonic
AH - artificial harmonic
TH - tapped harmonic
SH - semi harmonic
PH - pitch harmonic
h - hammer on
p - pull off
b - bend
br - bendRelease
pb - preBend
pbr - preBendRelease
brb - bendReleaseBend
\n/ - tremolo bar dip
\n - tremolo bar dive
-/n - tremolo bar Release up
/n\ - tremolo bar inverted dip
/n - tremolo bar return
-\n - tremolo bar Release down
S - shift slide
s - legato slide
/ -  slide into from below or out of upwards
\ -  slide into from above or out of downwards
~ - vibrato
W - wide vibrato
tr - trill
TP - tremolo picking
T - tapping
S - slap
P - pop
< - fade in
^ - brush up
v - brush down
============================================================================
TNX SA MAHAL KONG SI JYN ANN!!!!!!
kila paul balasbas,jazzie del rosario,raymond martinez
at ang girl magnet renato diocales!!!
comments
We did not receive enough feedback on this tab! Please rate:
print report bad tab
1 2 3 4 5
3 comments total.
0 reply
angelarm001 wrote on March 29 2007, 09:38 am

nde ko maintindihan T_T
Power Tab mo po

0 reply
suicyd619 wrote on February 14 2010, 09:16 pm

ang hirap intindihin hehehe nxia na

0 reply
Comatoes wrote on January 1 2014, 01:54 am

Bro lagyan mo ng caption each part ng song para alam ng viewers kung saan yung intro, verse, chorus, etc. Mas ok na version to compared sa mga recent posts. More power!

I want to post or [tab]
guest
You may want to rate the tab now too:
select rating
Please do not post tabs as comments. Select "correction" instead!