Oops, an error
Loading. Please wait.

Why Do You Let Me Stay Here Tab

ver1
ver1

Whole song

Interactive

More versions @911Tabs.com
11,362 views 6 this week
1 commentread comment
1 2 3 4 5
accurate
x 3
Autoscroll
+/-
esc
set tempo
stop
Contributor
Hey! There's an official Ultimate Guitar app which is ideal
for learning songs when you're away from computer. Get the app
WARNING: You are trying to view
                                    content from Ultimate-Guitar.com
                                    in an unauthorized application,
                                    which is prohibited.

                                    Please use an official Ultimate
                                    Guitar Tabs application for iPhone,
                                    iPad or Android to access legitimate
                                    chords, guitar, bass, and drum tabs
                                    from Ultimate-Guitar.com database.

                                    Type "ultimate guitar tabs" in Apple
                                    App Store's or Android Market's
                                    search to find the application.
Artist: She & Him
Song: Why Do You Le Me Stay Here?
Album: Volume One
Composer: Zooey Deschanel
Tuning: Standard

Intro

|-0-0-0-0---------0-0-0-0-0-0-0-0-|
|-1-1-1-1---------1-1-1-1-4-4-3-3-|
|-0-0-0-0-1-1-1-1-0-0-0-0-0-0-0-0-|
|-2-2-2-2-2-2-2-2-2-2-2-2-5-5-4-4-|
|-3-3-3-3-1-1-1-1-3-3-3-3-6-6-5-5-|
|---------------------------------|

|-0-0-0-0---------0-0-0-0-0-0-0-0-|
|-1-1-1-1---------1-1-1-1-4-4-3-3-|
|-0-0-0-0-1-1-1-1-0-0-0-0-0-0-0-0-|
|-2-2-2-2-2-2-2-2-2-2-2-2-5-5-4-4-|
|-3-3-3-3-1-1-1-1-3-3-3-3-6-6-5-5-|
|---------------------------------|

Verse
Why Do You Let Me Stay Here?
|-0-0-0-0---------0-0-0-0-0-0-0-0-|
|-1-1-1-1---------1-1-1-1-4-4-3-3-|
|-0-0-0-0-1-1-1-1-0-0-0-0-0-0-0-0-|
|-2-2-2-2-2-2-2-2-2-2-2-2-5-5-4-4-|
|-3-3-3-3-1-1-1-1-3-3-3-3-6-6-5-5-|
|---------------------------------|

All By Myself
|-0-0-0-0---------0-0-0-0-0-0-0-0-|
|-1-1-1-1---------1-1-1-1-4-4-3-3-|
|-0-0-0-0-1-1-1-1-0-0-0-0-0-0-0-0-|
|-2-2-2-2-2-2-2-2-2-2-2-2-5-5-4-4-|
|-3-3-3-3-1-1-1-1-3-3-3-3-6-6-5-5-|
|---------------------------------|

Why Don't You Come and Play Here
|-0-0-0-0---------0-0-0-0---------|
|-1-1-1-1---------1-1-1-1---------|
|-0-0-0-0-1-1-1-1-0-0-0-0-1-1-1-1-|
|-2-2-2-2-2-2-2-2-2-2-2-2-2-2-2-2-|
|-3-3-3-3-1-1-1-1-3-3-3-3-1-1-1-1-|
|---------------------------------|

I'm Just Sitting On a Shelf
|-0-0-0-0-0-0-0-0-|
|-3-3-3-3-3-3-3-3-|
|-0-0-0-0-0-0-0-0-|
|-4-4-4-4-4-4-4-4-|
|-5-5-5-5-5-5-5-5-|
|-----------------|




also, try this chord
|---
|---
|-2-
|-2-
|-1-
|---

instead of this chord throughout the song for what it might be
|---
|---
|-1-
|-2-
|-1-
|---

It just continues that over throughout the song. When i've figured out the solo i'll put 
on here
comments
We did not receive enough feedback on this tab! Please rate:
print report bad tab
1 2 3 4 5
1 comment total.
0 reply
alsk8er14 wrote on August 5 2008, 03:49 am

don't mind this tab i've currently posted a new one and it's in the process of being accepted and it's at least 97% (only 'cause there's like one or two parts i'm not sure about) correct and includes the solo. if by chance it doesn't get accepted i'll post it here in the comment section along with the actual chords of which i've figured out

I want to post or [tab]
guest
You may want to rate the tab now too:
select rating
Please do not post tabs as comments. Select "correction" instead!