Oops, an error
Loading. Please wait.

The Town That You Live In Tab

ver2
ver2

Whole song

More versions @911Tabs.com
2,126 views 1 this week
3 commentsread comments
1 2 3 4 5
accurate
x 3
Autoscroll
+/-
esc
set tempo
stop
Difficulty
intermediate
Hey! There's an official Ultimate Guitar app which is ideal
for learning songs when you're away from computer. Get the app
WARNING: You are trying to view
                                    content from Ultimate-Guitar.com
                                    in an unauthorized application,
                                    which is prohibited.

                                    Please use an official Ultimate
                                    Guitar Tabs application for iPhone,
                                    iPad or Android to access legitimate
                                    chords, guitar, bass, and drum tabs
                                    from Ultimate-Guitar.com database.

                                    Type "ultimate guitar tabs" in Apple
                                    App Store's or Android Market's
                                    search to find the application.
-------------------------------------------------------------------------------
The Town That You Live In - Sherwood
-------------------------------------------------------------------------------
Tabbed by: Jed L (From TCC)
Email:Firesidewing@hotmail.com

Tuning: E A D G B e

Guitar I   (E A D G B e) Lead   
Guitar II  (E A D G B e) Rhythm

Intro:
Verse 1
  Guitar 2
e|---------------------------------|
B|---------------------------------|
G|-----------------7-7-7-7---------|
D|-9-9-9-9-5-5-5-5-7-7-7-7-7-7-7-7-|  x4
A|-9-9-9-9-5-5-5-5-5-5-5-5-7-7-7-7-|
E|-7-7-7-7-3-3-3-3---------5-5-5-5-|
^| * * * * * * * * * * * * * * * *

  Guitar 2
e|---------------------------------|---------------------------------||
B|---------------------------------|---------------------------------||
G|-----------------7-7-7-7---------|-----------------7-7-7-7---------||
D|-9-9-9-9-5-5-5-5-7-7-7-7-7-7-7-7-|-9-9-9-9-5-5-5-5-7-7-7-7-7-7-7-7-|| x2 
A|-9-9-9-9-5-5-5-5-5-5-5-5-7-7-7-7-|-9-9-9-9-5-5-5-5-5-5-5-5-7-7-7-7-||
E|-7-7-7-7-3-3-3-3---------5-5-5-5-|-7-7-7-7-3-3-3-3---------5-5-5-5-||
^| * * * * * * * * * * * * * * * * | * * * * * * * * * * * * * * * * ||
 |
 |Guitar 1 
e|---------------------------------|---------------------------------||
B|-7-------7-------7-------5-------|-7-------7-------7-------5--------||
G|---7-7-----7-7-----7-7-----------|---7-7-----7-7-----7-7-----------||
D|---------------------------------|---------------------------------|| x2
A|---------------------------------|---------------------------------||
E|---------------------------------|---------------------------------||
^|   x       x       x             |   x       x       x             ||

Chorus 1: 
  Guitar 2
e|----------------------------|----------------------------|
B|----------------------------|----------------------------|
G|-12----/----11--/---9--/--7-|-12----/----11--/---9--/--7-|
D|----------------------------|----------------------------|
A|-10----/----9---/---7--/--5-|-10----/----9---/---7--/--5-|
E|----------------------------|----------------------------|
^|
 |Guitar 1
e|----------------------------|----------------------------|
B|-7/8---8-10-7---7-8-5---5---|-7/8---8-10-7---7-8-5---5---|
G|-----7--------7-------7---7-|-----7--------7-------7---7-|
D|----------------------------|----------------------------|
A|----------------------------|----------------------------|
E|----------------------------|----------------------------|

  Guitar 2
e|----------------------------|----------------------------||
B|----------------------------|----------------------------||
G|-12----/----11--/---9--/--7-|-12----/----11--/---9-------||
D|----------------------------|----------------------------||
A|-10----/----9---/---7--/--5-|-10----/----9---/---7-------||
E|----------------------------|----------------------------||
^|
 |Guitar 1
e|----------------------------|----------------------------||
B|-7/8---8-10-7---7-8-5---5---|-----------6/7---7----------||
G|-----7--------7-------7---7-|-6/7---7-------7---7--------||
D|----------------------------|-----9---9------------------||
A|----------------------------|----------------------------||
E|----------------------------|----------------------------||

Pre-verse:
  Guitar 2
e|--------------------------------|--------------------------------||
B|--------------------------------|--------------------------------||
G|----------------7-7-7-----------|----------------7-7-7-----------||
D|-9-9----5-5-5---7-7-7---7-------|-9-9----5-5-5---7-7-7---7-------||
A|-9-9----5-5-5---5-5-5---7-------|-9-9----5-5-5---5-5-5---7-------||
E|-7-7----3-3-3-----------5-------|-7-7----3-3-3-----------5-------||
 |
 |Guitar 1
e|--------------------------------|--------------------------------|
B|--------------------------------|--------------------------------|
G|-4-4----4/6/7-/-11-9/7-/9-9-9---|-4-4----4/6/7-/-11-9/7-/9-------|
D|--------------------------------|--------------------------------|
A|-2-2----2/4/5-/-9--7/5-/7-7-7---|-2-2----2/4/5-/-9--7/5-/7-------|
E|--------------------------------|--------------------------------|

Verse 2: 
  Guitar 2
e|---------------------------------|---------------------------------|
B|---------------------------------|---------------------------------|
G|-----------------7---------------|-----------------7---------------|
D|-9-------5-------7-------7-------|-9-------5-------7-------7-------| 
A|-9-------5-------5-------7-------|-9-------5-------5-------7-------|
E|-7-------3---------------5-------|-7-------3---------------5-------|
 | 
 |Guitar 1 
e|---------------------------------|---------------------------------|
B|-7-------7-------7------5--------|-7-------7-------7------5--------|
G|---7-7-----7-7-----7-7-----------|---7-7-----7-7-----7-7-----------|
D|---------------------------------|---------------------------------| 
A|---------------------------------|---------------------------------|
E|---------------------------------|---------------------------------|
^|   x       x       x             |   x       x       x             |

  Guitar 2
e|---------------------------------|---------------------------------|
B|---------------------------------|---------------------------------|
G|-----------------7---------------|-----------------7---------------|
D|-9-------5-------7-------7-------|-9-------5-------7-------7-------| 
A|-9-------5-------5-------7-------|-9-------5-------5-------7-------|
E|-7-------3---------------5-------|-7-------3---------------5-------|
 | 
 |Guitar 1 
e|---------------------------------|---------------------------------|
B|-7-------8-------7------5--------|-7-------8-------7------5--------|
G|---7-7-----7-7-----7-7-----------|---7-7-----7-7-----7-7-----------|
D|---------------------------------|---------------------------------| 
A|---------------------------------|---------------------------------|
E|---------------------------------|---------------------------------|
^|   x       x       x             |   x       x       x             |

  Guitar 2
e|--------------------------------|--------------------------------|
B|--------------------------------|--------------------------------|
G|-----------------7p-7p----------|-----------------7p-7p----------|
D|-9p-9p---5p-5p---7p-7p--7-------|-9p-9p---5p-5p---7p-7p--7-------|
A|-9p-9p---5p-5p---5p-5p--7-------|-9p-9p---5p-5p---5p-5p--7-------|
E|-7p-7p---3p-3p----------5-------|-7p-7p---3p-3p----------5-------|

Guitar 2
e|---------------------------------|---------------------------------||
B|---------------------------------|---------------------------------||
G|-----------------7---------------|-----------------7---------------||
D|-9-------5-------7-------7-------|-9-------5-------7-------7-------||
A|-9-------5-------5-------7-------|-9-------5-------5-------7-------||
E|-7-------3---------------5-------|-7-------3---------------5-------||
 | 
 |Guitar 1 
e|---------------------------------|---------------------------------||
B|-7-------7-------7------5--------|-7-------7-------7------5--------||
G|---7-7-----7-7-----7-7-----------|---7-7-----7-7-----7-7-----------||
D|---------------------------------|---------------------------------||
A|---------------------------------|---------------------------------||
E|---------------------------------|---------------------------------||
^|   x       x       x             |   x       x       x             ||

Chorus 2:
  Guitar 2
e|--------------------------------|--------------------------------|
B|--------------------------------|--------------------------------|
G|-12-12-12-11-11-11-9-9-9-7--7-7-|-12-12-12-11-11-11-9-9-9-7--7-7-|
D|--------------------------------|--------------------------------| 
A|-10-10-10-9--9--9--7-7-7-5--5-5-|-10-10-10-9--9--9--7-7-7-5--5-5-|
E|--------------------------------|--------------------------------|

  Guitar 2
e|--------------------------------|--------------------------------|
B|--------------------------------|--------------------------------|
G|-12-12-12-11-11-11-9-9-9-7--7-7-|-12-12-12-11-11-11-9------------|
D|--------------------------------|--------------------------------| 
A|-10-10-10-9--9--9--7-7-7-5--5-5-|-10-10-10-9--9--9--7------------|
E|--------------------------------|--------------------------------|

Bridge: No Guitar

Chorus 3:
 |Guitar 1
e|--------------------------------|--------------------------------|
B|-7/8---8-10-7---7-8-5---5-7-----|--------------------------------|
G|-----7--------7-------7---7-----|--------------------------------|
D|--------------------------------|--------------------------------|
A|--------------------------------|--------------------------------|
E|--------------------------------|--------------------------------|
^|
 |Guitar 2
e|--------------------------------|--------------------------------|
B|----------------------------7-7-|--------------------------------|
G|--------------------------------|-12-12-12-11-11-11-9-9-9-7--7-7-|
D|----------------------------5-5-|--------------------------------| 
A|--------------------------------|-10-10-10-9--9--9--7-7-7-5--5-5-|
E|--------------------------------|--------------------------------|

  Guitar 2
e|--------------------------------|--------------------------------||
B|--------------------------------|--------------------------------||
G|-12-12-12-11-11-11-9-9-9-7--7-7-|-12-12-12-11-11-11-9------------||
D|--------------------------------|--------------------------------||
A|-10-10-10-9--9--9--7-7-7-5--5-5-|-10-10-10-9--9--9--7------------||
E|--------------------------------|--------------------------------||

Chorus 4:
  Guitar 2
e|---------------------------------|---------------------------------||
B|---------------------------------|---------------------------------||
G|-12---12/11---11/9-9-----7-------|-12---12/11---11/9-----7---------||
D|---------------------------------|---------------------------------||
A|-10---10/9-----9/7-7-----5-------|-10---10/9-----9/7-----5---------||
E|---------------------------------|---------------------------------||
 |Guitar 1
e|---------------------------------|---------------------------------||
B|---------------------------------|---------------------------------||
G|-7-7-7-7-7-7-7-7-7-7-7-7---7-7-7-|-7-7-7-7-7-7-7-7-7-7-7-7---7-7-7-||
D|---------------------------------|---------------------------------||
A|---------------------------------|---------------------------------||
E|---------------------------------|---------------------------------||

  Guitar 2
e|---------------------------------|---------------------------------||
B|---------------------------------|---------------------------------||
G|-12---12/11---11/9-9-----7-------|-12---12/11---11/9---------------||
D|---------------------------------|---------------------------------||
A|-10---10/9-----9/7-7-----5-------|-10---10/9-----9/7---------------||
E|---------------------------------|---------------------------------||
 |Guitar 1
e|---------------------------------|---------------------------------||
B|---------------------------------|---------------------------------||
G|-7-7-7-7-7-7-7-7-7-7-7-7---7-7-7-|-7-7-7-7-7-7-7-7-6---------------||
D|---------------------------------|---------------------------------||
A|---------------------------------|---------------------------------||
E|---------------------------------|---------------------------------||


End:
  Guitar 2
e|--------------------------------|--------------------------------||
B|--------------------------------|--------------------------------||
G|----------------7-7-7-----------|----------------7-7-7-----------||
D|-9-9----5-5-5---7-7-7---7-------|-9-9----5-5-5---7-7-7---7-------||
A|-9-9----5-5-5---5-5-5---7-------|-9-9----5-5-5---5-5-5---7-------||
E|-7-7----3-3-3-----------5-------|-7-7----3-3-3-----------5-------||
 |
 |Guitar 1
e|--------------------------------|--------------------------------|
B|--------------------------------|--------------------------------|
G|-4-4----4/6/7-/-11-9/7-/9-9-9---|-4-4----4/6/7-/-11-9/7-/6-------|
D|--------------------------------|--------------------------------|
A|-2-2----2/4/5-/-9--7/5-/7-7-7---|-2-2----2/4/5-/-9--7/5-/4-------|
E|--------------------------------|--------------------------------|

| /  slide up
| \  slide down
| h  hammer-on
| p  pull-off
| ~  vibrato
| +  harmonic
| x  Mute note
| *  Palm mute
===============================================================================
comments
We did not receive enough feedback on this tab! Please rate:
print report bad tab
1 2 3 4 5
3 comments total.
0 reply
firek wrote on September 23 2007, 11:35 am

I'm pretty sure that first chord should not be an E.

0 reply
cobra21adam wrote on April 19 2008, 04:33 pm

that a B firek, not a E...duh

0 reply
(-: UPandUP :-) wrote on May 4 2009, 08:57 am

lol

I want to post or [tab]
guest
You may want to rate the tab now too:
select rating
Please do not post tabs as comments. Select "correction" instead!