Oops, an error
Loading. Please wait.

Second Chance Tab

ver1
ver1

Whole song

Interactive

Video

More versions @911Tabs.com
69,903 views 18 this week
4 commentsread comments
1 2 3 4 5
worth learning
x 7
Autoscroll
+/-
esc
set tempo
stop
Contributor
Hey! There's an official Ultimate Guitar app which is ideal
for learning songs when you're away from computer. Get the app
WARNING: You are trying to view
                                    content from Ultimate-Guitar.com
                                    in an unauthorized application,
                                    which is prohibited.

                                    Please use an official Ultimate
                                    Guitar Tabs application for iPhone,
                                    iPad or Android to access legitimate
                                    chords, guitar, bass, and drum tabs
                                    from Ultimate-Guitar.com database.

                                    Type "ultimate guitar tabs" in Apple
                                    App Store's or Android Market's
                                    search to find the application.
k i saw all the other things for this and i didn't like them
this sounds alot better
my guitar teacher taught me this and i like it so yeah

star of baring the third fret then the next chord bar the 6th fret and 8th fret and the 
the 4th fret for the last chord
e--3--8--4--4-----------------------------------------------|
B--4--8--4--4-----------------------------------------------|
G--5--8--5--5-----------------------------------------------|
D--5--8--6--6-----------------------------------------------|
A--3--6--6--6-----------------------------------------------|
E--------4--4-----------------------------------------------|


then it goes into the 1st verse. u use the same 3 chords
but use the patter 1 (2) & 3 & then go to the next chord and play that same pattern
(1st chord)   (second chord)
my eyes r     opened wide

(third chord)          (third chord)
and by the way     i made it threw the day


do that twice then it goes to the chorus

that is all power chords
e-----------------------------------------------------------|
B-----------------------------------------------------------|
G-----------------------------------------------------------|
D--3-3-3-3-3-3-3-3--5-5-5-5-5-5-5-5-------------------------|
A--1-1-1-1-1-1-1-1--3-3-3-3-3-3-3-3--6-6-6-6-6-6-6-6--------|
E------------------------------------4-4-4-4-4-4-4-4--------|

e-----------------------------------------------------------|
B-----------------------------------------------------------|
G-----------------------------------------------------------|
D--8-8-8-8-8-8-8-8--3-3-3-3-3-3-3-3--5-5-5-5-5-5-5-5--------|
A--6-6-6-6-5-5-5-5--1-1-1-1-1-1-1-1--3-3-3-3-3-3-3-3--------|
E-----------------------------------------------------------|


                                  this is the part were it like
                                  "tell my mother tell my father"
                                  also were your gonna start the repeat

e------------------------------------------------------------------|
B------------------------------------------------------------------|
G------------------------------------------------------------------|
D---------------------------------5-5-5-5-5-5-5-5-8-8-8-8-8-8-8-8--|
A-3-3-3-3-3-3-3-3-3-3-3-3-3-3-3-3-3-3-3-3-3-3-3-3-6-6-6-6-6-6-6-6--|
E-1-1-1-1-1-1-1-1-1-1-1-1-1-1-1-1----------------------------------|

                                 repeat 4 times

                                 the forth time play the 4/6 power chord
                                 once and hold it then repeat the whole song
e-----------------------------------------------------------|
B-----------------------------------------------------------|
G-----------------------------------------------------------|
D-----------------------------------------------------------|
A--3-3-3-3-3-3-3-3-6-6-6-6-6-6-6-6--------------------------|
E--1-1-1-1-1-1-1-1-4-4-4-4-4-4-4-4--------------------------|

k the second time threw the song u go all the way threw and then you hear a different 
it's pretty cool

e-----------------------------------------------------------|
B-----------------------------------------------------------|
G-----------------------------------------------------------|
D----------------9-9-9-9-9-9---------x2---------------------|
A--3-3-3/5-5-5---7-7-6-6-6-6--------------------------------|
E--1-1-1/3-3-3----------------------------------------------|


then u'll hear that it goes back it goes back to the second part of the chorus so go 
to that part and rock it threw the rest
it's not hard to figure out after that


have fun with this and rock it
if u have ne questions send me an e-mail football-player-70@hotmail.com
comments
print report bad tab
4 comments total. Showing first comments.
+1 reply
UnavailableUser wrote on June 12 2009, 10:09 pm

if you could put this all in order it would be great

-1 reply
gillysisland93 wrote on July 27 2009, 05:04 pm

Eh.. Idts bud. This just doesn't sound right at all.

0 reply
guitarplayer950 wrote on July 30 2009, 06:00 pm

wow this is confusing

I want to post or [tab]
guest
You may want to rate the tab now too:
select rating
Please do not post tabs as comments. Select "correction" instead!