Oops, an error
Loading. Please wait.

Eventually Bass Tab

44 views 1 this week
no commentswrite comment
1 2 3 4 5
please rate
Autoscroll
+/-
esc
set tempo
stop
Contributor
Difficulty
intermediate
WARNING: You are trying to view
                                    content from Ultimate-Guitar.com
                                    in an unauthorized application,
                                    which is prohibited.

                                    Please use an official Ultimate
                                    Guitar Tabs application for iPhone,
                                    iPad or Android to access legitimate
                                    chords, guitar, bass, and drum tabs
                                    from Ultimate-Guitar.com database.

                                    Type "ultimate guitar tabs" in Apple
                                    App Store's or Android Market's
                                    search to find the application.
Bass
                                                                          
F#||------|------|------|------|------|------|------|--------------------|
C#||------|------|------|------|------|------|------|--------------------|
G#||------|------|------|------|------|------|------|--------------------|
D#||------|------|------|------|------|------|------|--------------3--2--|


                                                               
---------------------|-------------------|--------------------|
---------------------|-------------------|--------------------|
---------------------|-------------------|--5------------5----|
--0------------0--2--|--3----------------|--------------------|


                                                                
-------------------|---------------------|---------------------|
-------------------|---------------------|---------------------|
-------------------|---------------------|---------------0--2--|
--5----------------|--0------------0--2--|--3------------------|


                                                               
-------------------|--------------------|---------------------|
-------------------|--------------------|---------------------|
--5----------------|--------------------|---------------------|
-------------------|--5------------5----|--0------------0--2--|


                                                                
--------------------|--------------------|---------------------|
--------------------|--------------------|---------------------|
-----------7--------|--5------------5----|------------------2--|
--3-----------------|--------------------|--5------------5-----|


                                                              
---------------------|-------------------|-------------------|
---------------------|-------------------|-------------------|
--3------------3--5--|-------------------|--5----------------|
---------------------|--0----------------|-------------------|


                                                                   
--------------------|----------------------|----------------------|
--------------------|----------------------|----------------------|
--5--------5--------|--3----3----3----3----|----------------------|
--------------------|----------------------|--0----0----0----0----|


                                                                     
----------------------|----------------------|----------------------|
----------------------|----------------------|----------------------|
--5----5----5----5----|----------------------|--3----3----3----3----|
----------------------|--5----5----5----5----|----------------------|


                                                                     
----------------------|----------------------|----------------------|
----------------------|----------------------|----------------------|
----------------------|--5----5----5----5----|----------------------|
--0----0----0----0----|----------------------|--5----5----5----5----|


                                                                     
----------------------|----------------------|----------------------|
----------------------|----------------------|----------------------|
--3----3----3----3----|----------------------|--5----5----5----5----|
----------------------|--0----0----0----0----|----------------------|


                                                                      
-----------------------|----------------------|----------------------|
-----------------------|----------------------|----------------------|
-----------------0--2--|--3----3----3----3----|--3----3----3----3----|
--5----5----5----------|----------------------|----------------------|


                                                                
----------------------|------------------|---------------------|
----------------------|------------------|---------------------|
--5----5----5----5----|------------------|---------------------|
----------------------|------------------|--0------------0--2--|


                                                                  
-------------------|---------------------|-----------------------|
-------------------|---------------------|-----------------5-----|
-------------------|--5------------3--2--|-----------5--7-----7--|
--3----------------|---------------------|--5--------------------|


                                                                
---------------------|---------------------|-------------------|
---------------------|---------------------|-------------------|
---------------------|---------------0--2--|--5----------------|
--0------------0--2--|--3------------------|-------------------|


                                                                
--------------------|---------------------|--------------------|
--------------------|---------------------|--------------------|
--------------------|---------------------|-----------7--------|
--5------------5----|--0------------0--2--|--3-----------------|


                                                                  
---------------------|---------------------|---------------------|
---------------------|---------------------|---------------------|
--5------------3--2--|---------------------|---------------------|
---------------------|--5------------3--2--|--0------------0--2--|


                                                               
---------------------|-------------------|--------------------|
---------------------|-------------------|--------------------|
---------------0--2--|--5----------------|--------------------|
--3------------------|-------------------|--5------------5----|


                                                              
---------------------|-------------------|-------------------|
---------------------|-------------------|-------------------|
--3------------3--5--|-------------------|--5----------------|
---------------------|--0----------------|-------------------|


                                                                   
--------------------|----------------------|----------------------|
--------------------|----------------------|----------------------|
--5--------5--------|--3----3----3----3----|----------------------|
--------------------|----------------------|--0----0----0----0----|


                                                                     
----------------------|----------------------|----------------------|
----------------------|----------------------|----------------------|
--5----5----5----5----|----------------------|--3----3----3----3----|
----------------------|--5----5----5----5----|----------------------|


                                                                     
----------------------|----------------------|----------------------|
----------------------|----------------------|----------------------|
----------------------|--5----5----5----5----|----------------------|
--0----0----0----0----|----------------------|--5----5----5----5----|


                                                                     
----------------------|----------------------|----------------------|
----------------------|----------------------|----------------------|
--3----3----3----3----|----------------------|--5----5----5----5----|
----------------------|--0----0----0----0----|----------------------|


                                                                      
-----------------------|----------------------|----------------------|
-----------------------|----------------------|----------------------|
-----------------0--2--|--3----3----3----3----|--3----3----3----3----|
--5----5----5----------|----------------------|----------------------|


                                                                        
----------------------|------|--------------------|--------------------|
----------------------|------|--------------------|--------------------|
--5----5----5----5----|------|--------------------|--------------------|
----------------------|------|--0----0------------|--2----2------------|


                                                                   
--------------------|----------------------|----------------------|
--------------------|----------------------|----------------------|
--------------------|----------------------|----------------------|
--3----3------------|--5----5----x--3------|--0----0----0----0----|


                                                                     
----------------------|----------------------|----------------------|
----------------------|----------------------|----------------------|
----------------------|--3----3----3----3----|--5----5----5----5----|
--2----2----2----2----|----------------------|----------------------|


                                                                     
----------------------|----------------------|----------------------|
----------------------|----------------------|----------------------|
--3----3----3----3----|----------------------|--5----5----5----5----|
----------------------|--0----0----0----0----|----------------------|


                                                                     
----------------------|----------------------|----------------------|
----------------------|----------------------|----------------------|
----------------------|--3----3----3----3----|----------------------|
--5----5----5----5----|----------------------|--0----0----0----0----|


                                                                     
----------------------|----------------------|----------------------|
----------------------|----------------------|----------------------|
--5----5----5----5----|----------------------|--3----3----3----3----|
----------------------|--5----5----5----5----|----------------------|


                                                                       
----------------------|----------------------|------------------------|
----------------------|----------------------|------------------------|
----------------------|--5----5----5----5----|-----------------5------|
--3----3----3----3----|----------------------|--0--0--0--0--x---------|


                                                                            
----------------------|----------------------|----------------------|------|
----------------------|----------------------|----------------------|------|
--3----3----3----3----|--3----3----3----3----|--5----5----5----5----|------|
----------------------|----------------------|----------------------|------|


                                                                             
------|------|------|------|------|------|------|------|--------------------|
------|------|------|------|------|------|------|------|--------------------|
------|------|------|------|------|------|------|------|--3----3------------|
------|------|------|------|------|------|------|------|--------------------|


                                                                     
----------------------|----------------------|----------------------|
----------------------|----------------------|----------------------|
----------------------|--5----5----5----5----|-----------------2----|
--3----3----3----3----|----------------------|--0----2----3---------|


                                                                     
----------------------|----------------------|----------------------|
----------------------|----------------------|----------------------|
--3----3----3----3----|--3----3----3----3----|--5----5----5----5----|
----------------------|----------------------|----------------------|


                                                                     
----------------------|----------------------|----------------------|
----------------------|----------------------|----------------------|
--5----5----5----5----|--3----3----3----3----|----------------------|
----------------------|----------------------|--0----0----0----0----|


                                                                     
----------------------|----------------------|----------------------|
----------------------|----------------------|----------------------|
--5----5----5----5----|----------------------|--3----3----3----3----|
----------------------|--5----5----5----5----|----------------------|


                                                                     
----------------------|----------------------|----------------------|
----------------------|----------------------|----------------------|
----------------------|--5----5----5----5----|----------------------|
--3----3----3----3----|----------------------|--5----5----5----5----|


                                                                     
----------------------|----------------------|----------------------|
----------------------|----------------------|----------------------|
--3----3----3----3----|----------------------|--5----5----5----5----|
----------------------|--0----0----0----0----|----------------------|


                                                                          
---------------------------|----------------------|----------------------|
---------------------------|----------------------|----------------------|
--0----0----0----0----2----|--3----3----3----3----|--3----3----3----3----|
---------------------------|----------------------|----------------------|


                                                                     
----------------------|----------------------|----------------------|
----------------------|----------------------|----------------------|
--5----5----5----5----|--5----5----5----5----|--3----3----3----3----|
----------------------|----------------------|----------------------|


                                                                               
----------------------|----------------------|------------------|------|-----
----------------------|----------------------|------------------|------|-----
--3----3----3----3----|--5----5----5----5----|------------------|------|-----
----------------------|----------------------|------------------|------|-----


                                                                
------|------|------|------|------|------|------|------|------||
------|------|------|------|------|------|------|------|------||
------|------|------|------|------|------|------|------|------||
------|------|------|------|------|------|------|------|------||
comments
We did not receive enough feedback on this tab! Please rate:
print report bad tab
1 2 3 4 5
I want to post or [tab]
guest
You may want to rate the tab now too:
select rating
Please do not post tabs as comments. Select "correction" instead!