Oops, an error
Loading. Please wait.

Eventually Tab

ver1
ver1

Whole song

Interactive

More versions @911Tabs.com
237 views 1 this week
no commentswrite comment
1 2 3 4 5
please rate
Autoscroll
+/-
esc
set tempo
stop
Contributor
Difficulty
intermediate
Hey! There's an official Ultimate Guitar app which is ideal
for learning songs when you're away from computer. Get the app
WARNING: You are trying to view
                                    content from Ultimate-Guitar.com
                                    in an unauthorized application,
                                    which is prohibited.

                                    Please use an official Ultimate
                                    Guitar Tabs application for iPhone,
                                    iPad or Android to access legitimate
                                    chords, guitar, bass, and drum tabs
                                    from Ultimate-Guitar.com database.

                                    Type "ultimate guitar tabs" in Apple
                                    App Store's or Android Market's
                                    search to find the application.
Main Guitar Parts
    
Acoustic Intro                                                      
D#||-------------------------|--------------------------|
A#||-------------------------|--------------------3-----|
F#||----------------0--------|--------------0--------0--|
C#||-------------0-----------|-----------0-----0--------|
G#||-------0h-2--------------|-------0h2----------------|
D#||--0----------------0--2--|--3-----------------------|


                                                                             
---------3h-2-----------|-------------------------|-------------------------|
---------3-----3--------|-------------------------|-------------------------|
---------2--------2-----|----------2--------0-----|----------------0--------|
--0------0-----------0--|-------2-----0h-2-----2--|-------------0-----------|
------------------------|--0----------------------|-------0h-2--------------|
------------------------|-------------------------|--0----------------0--2--|


                                                                             
--------------------------|---------3h-2-----------|----------3-------------|
--------------------3-----|---------3-----3--------|----------3-------------|
--------------0--------0--|---------2--------2-----|----------2-------------|
-----------0-----0--------|--0------0-----------0--|----------0----0--------|
-------0h2----------------|------------------------|--0----0----------------|
--3-----------------------|------------------------|------------------3--2--|


                                                                              
-------------------------|--------------------------|---------3h2-----------|
-------------------------|--------------------3-----|---------3-----3-------|
----------------0--------|--------------0--------0--|---------2--------2----|
---------------0---------|-----------0-----0--------|--0------0-----------0-|
--------0h2--------------|-------0h2----------------|-----------------------|
---0---------------0--2--|--3-----------------------|-----------------------|


                                                                               
-------------------------|-------------------------|-------------------------
-------------------------|-------------------------|--------------------3----
----------2--------0-----|----------------0--------|--------------0--------0-
-------2-----0h2-----2---|-------------0-----------|-----------0-----0------
--0----------------------|-------0h2---------------|-------0h2---------------
-------------------------|--0----------------0--2--|--3----------------------


                                                                        
---------3h-2-----------|-------------------------|--3--------3--------|
---------3-----3--------|-------------------------|--3--------3--------|
---------2--------2-----|----------2--------------|--0--------0--------|
--0------0-----------0--|-------2-----2--4--2--0--|--2--------2--------|
------------------------|--0----------------------|--2--------2--------|
------------------------|-------------------------|--0--------0--------|


                                                                 
--3--------3------3--|--2--------2--------|--3--------3------3--|
--3--------3------3--|--3--------3--------|--3--------3------3--|
--0--------0---------|--2--------2--------|--2--------2---------|
--0--------0---------|--0--------0--------|--2--------2---------|
--2--------2---------|--------------------|--0--------0---------|
--3--------3---------|--------------------|---------------------|


                                                                   
--3--------3------3--|--3--------3------3--|--2----2----2----2----|
--3--------3------3--|--3--------3------3--|--3----3----3----3----|
--0--------0---------|--0--------0---------|--2----2----2----2----|
--2--------2---------|--2--------2---------|--0----0----0----0----|
--3--------3---------|--2--------2---------|----------------------|
---------------------|--0--------0---------|----------------------|


                                                                                
--2----2----2--2--2--2--|
--3----3----3--3--3--3--|
--2----2----2--2--2--2--|
--0----0----0--0--0--0--|
------------------------|
------------------------|

Lead 
              
|--------------------|
|--------------------|
|--9--------7--------|
|--------------------|
|--------------------|
|--------------------|


                                                             
----------------------|------------------|------------------|
----------------------|------------------|------------------|
----------------------|------------------|------------------|
--7r---5----9----7----|------------------|------------------|
----------------------|------------------|------------------|
----------------------|------------------|------------------|


                                                                         
----------------------|--------------------------|----------------------|
--17--------15--------|--------------------------|----------------------|
----------------------|--14r---12----16----14----|------------------12--|
----------------------|--------------------------|--------------14------|
----------------------|--------------------------|----------------------|
----------------------|--------------------------|----------------------|


                                                                       
------------------------|--3----3----3----3----|--3----3----3----3----|
------------------------|--3----3----3----3----|--0----0----0----0----|
--14------12----11------|--0----0----0----0----|--0----0----0----0----|
------------------------|--2----2----2----2----|--2----2----2----2----|
------------------------|--3----3----3----3----|--2----2----2----2----|
------------------------|----------------------|--0----0----0----0----|


                                                                     
--2----2----2----2----|--3----3----3----3----|--3----3----3----3----|
--3----3----3----3----|--3----3----3----3----|--3----3----3----3----|
--2----2----2----2----|--2----2----2----2----|--0----0----0----0----|
--0----0----0----0----|--2----2----2----2----|--2----2----2----2----|
----------------------|--0----0----0----0----|--3----3----3----3----|
----------------------|----------------------|----------------------|


                                                                     
--3----3----3----3----|--2----2----2----2----|--3----3----3----3----|
--0----0----0----0----|--3----3----3----3----|--3----3----3----3----|
--0----0----0----0----|--2----2----2----2----|--2----2----2----2----|
--2----2----2----2----|--0----0----0----0----|--2----2----2----2----|
--2----2----2----2----|----------------------|--0----0----0----0----|
--0----0----0----0----|----------------------|----------------------|


                                                                     
--3----3----3----3----|--3----3----3----3----|--2----2----2----2----|
--3----3----3----3----|--0----0----0----0----|--3----3----3----3----|
--0----0----0----0----|--0----0----0----0----|--2----2----2----2----|
--2----2----2----2----|--2----2----2----2----|--0----0----0----0----|
--3----3----3----3----|--2----2----2----2----|----------------------|
----------------------|--0----0----0----0----|----------------------|


                                                                     
--3----3----3----3----|--3----3----3----3----|--3----3----3----3----|
--3----3----3----3----|--3----3----3----3----|--3----3----3----3----|
--2----2----2----2----|--0----0----0----0----|--0----0----0----0----|
--2----2----2----2----|--2----2----2----2----|--2----2----2----2----|
--0----0----0----0----|--3----3----3----3----|--3----3----3----3----|
----------------------|----------------------|----------------------|


                                                                               
--2----2----2----2----|
--3----3----3----3----|
--2----2----2----2----|
--0----0----0----0----|
----------------------|
----------------------|






--------------------|--------------------|--------------------|
--------------------|--------------------|--------------------|
--------------------|--------------------|--------------------|
--------------------|--------------------|--------------------|
--2----2------------|--5----5------------|--5----5------------|
--0----0------------|--2----2------------|--3----3------------|


                                                                     
----------------------|----------------------|----------------------|
----------------------|----------------------|----------------------|
----------------------|----------------------|----------------------|
----------------------|----------------------|----------------------|
--7----7----x--5------|--2----2----2----2----|--5----5----5----5----|
--5----5----x--3------|--0----0----0----0----|--2----2----2----2----|


                                                                     
----------------------|----------------------|----------------------|
----------------------|----------------------|----------------------|
----------------------|----------------------|----------------------|
--5----5----5----5----|--7----7----7----7----|--5----5----5----5----|
--3----3----3----3----|--5----5----5----5----|--3----3----3----3----|
----------------------|----------------------|----------------------|


                                                                     
----------------------|----------------------|----------------------|
----------------------|----------------------|----------------------|
----------------------|----------------------|----------------------|
----------------------|--7----7----7----7----|----------------------|
--2----2----2----2----|--5----5----5----5----|--7----7----7----7----|
--0----0----0----0----|----------------------|--5----5----5----5----|


                                                                     
----------------------|----------------------|----------------------|
----------------------|----------------------|----------------------|
----------------------|----------------------|----------------------|
--5----5----5----5----|----------------------|--7----7----7----7----|
--3----3----3----3----|--2----2----2----2----|--5----5----5----5----|
----------------------|--0----0----0----0----|----------------------|


                                                                     
----------------------|----------------------|----------------------|
----------------------|----------------------|----------------------|
----------------------|----------------------|----------------------|
----------------------|--5----5----5----5----|----------------------|
--7----7----7----7----|--3----3----3----3----|--5----5----5----5----|
--5----5----5----5----|----------------------|--3----3----3----3----|


                                                                       
----------------------|------------------------|----------------------|
----------------------|------------------------|----------------------|
----------------------|------------------------|----------------------|
--7----7----7----7----|--------------x--7------|--5----5----5----5----|
--5----5----5----5----|--2--2--2--2--x--5------|--3----3----3----3----|
----------------------|--0--0--0--0------------|----------------------|


                                                                          
----------------------|----------------------|------|------|------|------|
----------------------|----------------------|------|------|------|------|
----------------------|----------------------|------|------|------|------|
--5----5----5----5----|--7----7----7----7----|------|------|------|------|
--3----3----3----3----|--5----5----5----5----|------|------|------|------|
----------------------|----------------------|------|------|------|------|


                                                                           
------|------|------|--------------------------|--------------------------|
------|------|------|--------------------------|--------------------------|
------|------|------|--------------------------|--------------------------|
------|------|------|--7--7--7--7--7--7--7--7--|--7--7--7--7--7--7--7--7--|
------|------|------|--5--5--5--5--5--5--5--5--|--5--5--5--5--5--5--5--5--|
------|------|------|--------------------------|--------------------------|


                                                                   
--------------------|----------------------|----------------------|
--------------------|----------------------|----------------------|
--------------------|----------------------|--7----7----7----7----|
--5----5------------|--5----5----5----5----|--7----7----7----7----|
--3----3------------|--5----5----5----5----|--5----5----5----5----|
--------------------|--3----3----3----3----|----------------------|


                                                                     
----------------------|----------------------|----------------------|
----------------------|----------------------|----------------------|
----------------------|--5----5----5----5----|--5----5----5----5----|
----------------------|--5----5----5----5----|--5----5----5----5----|
-----------------2----|--3----3----3----3----|--3----3----3----3----|
--0----2----3---------|----------------------|----------------------|


                                                                     
----------------------|----------------------|----------------------|
----------------------|----------------------|----------------------|
--7----7----7----7----|--7----7----7----7----|--5----5----5----5----|
--7----7----7----7----|--7----7----7----7----|--5----5----5----5----|
--5----5----5----5----|--5----5----5----5----|--3----3----3----3----|
----------------------|----------------------|----------------------|


                                                                     
----------------------|----------------------|----------------------|
----------------------|----------------------|----------------------|
----------------------|--7----7----7----7----|----------------------|
--2----2----2----2----|--7----7----7----7----|--7----7----7----7----|
--2----2----2----2----|--5----5----5----5----|--7----7----7----7----|
--0----0----0----0----|----------------------|--5----5----5----5----|


                                                                     
----------------------|----------------------|----------------------|
----------------------|----------------------|----------------------|
--5----5----5----5----|----------------------|--7----7----7----7----|
--5----5----5----5----|--5----5----5----5----|--7----7----7----7----|
--3----3----3----3----|--5----5----5----5----|--5----5----5----5----|
----------------------|--3----3----3----3----|----------------------|


                                                                     
----------------------|----------------------|----------------------|
----------------------|----------------------|----------------------|
----------------------|--5----5----5----5----|----------------------|
--7----7----7----7----|--5----5----5----5----|--2----2----2----2----|
--7----7----7----7----|--3----3----3----3----|--2----2----2----2----|
--5----5----5----5----|----------------------|--0----0----0----0----|


                                                                          
----------------------|---------------------------|----------------------|
----------------------|---------------------------|----------------------|
--7----7----7----7----|----------------------4----|--5----5----5----5----|
--7----7----7----7----|--7----7----7----7----5----|--5----5----5----5----|
--5----5----5----5----|--7----7----7----7----2----|--3----3----3----3----|
----------------------|--5----5----5----5---------|----------------------|


                                                                     
----------------------|----------------------|----------------------|
----------------------|----------------------|----------------------|
--5----5----5----5----|--7----7----7----7----|--7----7----7----7----|
--5----5----5----5----|--7----7----7----7----|--7----7----7----7----|
--3----3----3----3----|--5----5----5----5----|--5----5----5----5----|
----------------------|----------------------|----------------------|


                                                                     
----------------------|----------------------|----------------------|
----------------------|----------------------|----------------------|
--5----5----5----5----|--5----5----5----5----|--7----7----7----7----|
--5----5----5----5----|--5----5----5----5----|--7----7----7----7----|
--3----3----3----3----|--3----3----3----3----|--5----5----5----5----|
----------------------|----------------------|----------------------|



SOLO


|----------12--------|
|----------15b-------|
|--------------------|
|--------------------|
|--------------------|
|--------------------|


                                                                 
----------14--------|----------15--------|--17--------17--------|
----------17b-------|----------18b-------|--20b-------20b-------|
--------------------|--------------------|----------------------|
--------------------|--------------------|----------------------|
--------------------|--------------------|----------------------|
--------------------|--------------------|----------------------|


                                                                          
----------------------|-------------------------|------------------------|
----------------------|-------------------------|------------------------|
----------16----12----|--12----7----12----12----|--14--------14------12--|
----------------------|-------------------------|------------------------|
----------14----10----|--10----5----10----10----|--12--------12------10--|
----------------------|-------------------------|------------------------|


                                                                              
--------------------------|------------------------|-------------------------|
--------------------------|------------------------|-------------------------|
--14----16----14----12----|--12--------16----12----|--12----7----12----12----|
--------------------------|------------------------|-------------------------|
--12----14----12----10----|--10--------14----10----|--10----5----10----10----|
--------------------------|------------------------|-------------------------|


                                                                            
------------------------|--------------------------------------------------|
------------------------|--------------------------------------12--13--15--|
--14--------14----------|--------------------------11--12--14--------------|
------------------------|--------------10--12--14--------------------------|
--12--------12------10--|--10--12--14--------------------------------------|
------------------------|--------------------------------------------------|


                                                                       
----------------------|----------------------|--------------------12--|
--15b-----------------|----------------------|------------------------|
------------14r-------|--12--------14r-------|--14--------14----------|
----------------------|----------------------|------------------------|
----------------------|----------------------|------------------------|
----------------------|----------------------|------------------------|


                                                                          
--15h12-------------------------------------------|----------------------|
--------15h12----12h15h12-------------------------|------------15r-------|
--------------14----------14h12-------14h12-------|--12------------------|
--------------------------------14h12-------14h12-|----------------------|
--------------------------------------------------|----------------------|
--------------------------------------------------|----------------------|


                                                                           
--------------------------|--15b-------15~-------|--15b-------------------|
--15b---------12h-15h-12--|----------------------|----------------12h-15h-|
--------------------------|----------------------|------------------------|
--------------------------|----------------------|------------------------|
--------------------------|----------------------|------------------------|
--------------------------|----------------------|------------------------|


                                                             
--------------------|-------------------|-------------------|
--12----------------|--------------8b---|--8----------------|
--------------------|-------------------|-------------------|
--------------------|-------------------|-------------------|
--------------------|-------------------|-------------------|
--------------------|-------------------|-------------------|


                                                             
---------------------|-------------------|------------------|
--7------------3--5--|--3----------------|------------------|
---------------------|-------------------|------------------|
---------------------|-------------------|------------------|
---------------------|-------------------|------------------|
---------------------|-------------------|------------------|
comments
We did not receive enough feedback on this tab! Please rate:
print report bad tab
1 2 3 4 5
I want to post or [tab]
guest
You may want to rate the tab now too:
select rating
Please do not post tabs as comments. Select "correction" instead!