Oops, an error
Loading. Please wait.

Cloud Tab

by Sia
ver1
ver1

Whole song

Interactive

More versions @911Tabs.com
852 views 1 this week
no commentswrite comment
1 2 3 4 5
excellent!
x 1
Autoscroll
+/-
esc
set tempo
stop
Contributor
Difficulty
intermediate
Hey! There's an official Ultimate Guitar app which is ideal
for learning songs when you're away from computer. Get the app
WARNING: You are trying to view
                                    content from Ultimate-Guitar.com
                                    in an unauthorized application,
                                    which is prohibited.

                                    Please use an official Ultimate
                                    Guitar Tabs application for iPhone,
                                    iPad or Android to access legitimate
                                    chords, guitar, bass, and drum tabs
                                    from Ultimate-Guitar.com database.

                                    Type "ultimate guitar tabs" in Apple
                                    App Store's or Android Market's
                                    search to find the application.
Title: Cloud
Artist: Sia
Album: We Are Born
Music: Ryan Chandler
Tempo = 112
Electric Guitar

Legend
L - tied note
x - dead note
h - hammer on/pull off
b - bend
s - slide
~ - vibrato
g - ghost note
> - accentuated note
t - trill
M - palm mute
. - staccato
P - popping (bass)
S - slapping (bass)
+ - tapping
W - wide vibrato
< - fade in
w - whammy bar
= - tremolo picking
v - brush up
^ - brush down
V - pick stroke up
n - pick stroke down


E |----------------|----------------------------|----------------|
B |----------------|----------------------------|----------------|
G |--11s7--6s-4----|--4-----4--4L----4s---------|--11s7--6s-4----|
D |----------------|-----2----------------------|----------------|
A |----------------|----------------------------|----------------|
E |--10s7--5s-4----|--4--------3L----3s---------|--10s7--5s-4----|


----------------------------|----------------|----------------------------|
----------------------------|----------------|----------------------------|
--4-----4--4L----4s---------|--11s7--6s-4----|--4-----4--4L----4s---------|
-----2----------------------|----------------|-----2----------------------|
----------------------------|----------------|----------------------------|
--4--------3L----3s---------|--10s7--5s-4----|--4--------3L----3s---------|


----------------|----------------------------|----------------|
----------------|----------------------------|----------------|
--11s7--6s-4----|--4-----4--4L----4s---------|--11s7--6s-4----|
----------------|-----2----------------------|----------------|
----------------|----------------------------|----------------|
--10s7--5s-4----|--4--------3L----3s---------|--10s7--5s-4----|


----------------------------|----------------|----------------------------|
----------------------------|----------------|----------------------------|
--4-----4--4L----4s---------|--11s7--6s-4----|--4-----4--4L----4s---------|
-----2----------------------|----------------|-----2----------------------|
----------------------------|----------------|----------------------------|
--4--------3L----3s---------|--10s7--5s-4----|--4--------3L----3s---------|


----------------|----------------------------|----------------|
----------------|----------------------------|----------------|
--11s7--6s-4----|--4-----4--4L----4s---------|--11s7--6s-4----|
----------------|-----2----------------------|----------------|
----------------|----------------------------|----------------|
--10s7--5s-4----|--4--------3L----3s---------|--10s7--5s-4----|


----------------------------|----------------|----------------------------|
----------------------------|----------------|----------------------------|
--4-----4--4L----4s---------|--11s7--6s-4----|--4-----4--4L----4s---------|
-----2----------------------|----------------|-----2----------------------|
----------------------------|----------------|----------------------------|
--4--------3L----3s---------|--10s7--5s-4----|--4--------3L----3s---------|


----------------|----------------------------|----------------------------|
----------------|----------------------------|----------------------------|
--11s7--6s-4----|--4-----4--4L----4----------|--4-----4--4L----4----------|
----------------|-----2----------------------|-----2----------------------|
----------------|----------------------------|----------------------------|
--10s7--5s-4----|--4--------3L----3----------|--4--------3L----3----------|


----------------------------|----------------------------|
--2--2--2--2--2--2--2--2----|--2--2--2--2--2--2--2--2----|
--2--2--2--2--2--2--2--2----|--2--2--2--2--2--2--2--2----|
--2--2--2--2--2--2--2--2----|--2--2--2--2--2--2--2--2----|
--4--4--4--4--4--4--4--4----|--4--4--4--4--4--4--4--4----|
----------------------------|----------------------------|


----------------------------|----------------------------|
--5--5--5--5--5--5--5--5----|--8--8--8--8--8--8--8--8----|
--4--4--4--4--4--4--4--4----|--7--7--7--7--7--7--7--7----|
--6--6--6--6--6--6--6--6----|--9--9--9--9--9--9--9--9----|
--7--7--7--7--7--7--7--7----|--10-10-10-10-10-10-10-10---|
----------------------------|----------------------------|


----------------------------|----------------------------|
--2--2--2--2--2--2--2--2----|--2--2--2--2--2--2--2--2----|
--2--2--2--2--2--2--2--2----|--2--2--2--2--2--2--2--2----|
--2--2--2--2--2--2--2--2----|--2--2--2--2--2--2--2--2----|
--4--4--4--4--4--4--4--4----|--4--4--4--4--4--4--4--4----|
----------------------------|----------------------------|


----------------------------|----------------------------|
--5--5--5--5--5--5--5--5----|--8--8--8--8--8--8--8--8----|
--4--4--4--4--4--4--4--4----|--7--7--7--7--7--7--7--7----|
--6--6--6--6--6--6--6--6----|--9--9--9--9--9--9--9--9----|
--7--7--7--7--7--7--7--7----|--10-10-10-10-10-10-10-10---|
----------------------------|----------------------------|


----------------------------|----------------|----------------------------|
--8--8--8--8--8--8--8--8----|----------------|----------------------------|
--7--7--7--7--7--7--7--7----|--11s7--6s-4----|--4-----4--4L----4s---------|
--9--9--9--9--9--9--9--9----|----------------|-----2----------------------|
--10-10-10-10-10-10-10-10---|----------------|----------------------------|
----------------------------|--10s7--5s-4----|--4--------3L----3s---------|


----------------|----------------------------|----------------|
----------------|----------------------------|----------------|
--11s7--6s-4----|--4-----4--4L----4s---------|--11s7--6s-4----|
----------------|-----2----------------------|----------------|
----------------|----------------------------|----------------|
--10s7--5s-4----|--4--------3L----3s---------|--10s7--5s-4----|


----------------------------|----------------|----------------------------|
----------------------------|----------------|----------------------------|
--4-----4--4L----4s---------|--11s7--6s-4----|--4-----4--4L----4s---------|
-----2----------------------|----------------|-----2----------------------|
----------------------------|----------------|----------------------------|
--4--------3L----3s---------|--10s7--5s-4----|--4--------3L----3s---------|


----------------|----------------------------|----------------|
----------------|----------------------------|----------------|
--11s7--6s-4----|--4-----4--4L----4s---------|--11s7--6s-4----|
----------------|-----2----------------------|----------------|
----------------|----------------------------|----------------|
--10s7--5s-4----|--4--------3L----3s---------|--10s7--5s-4----|


----------------------------|----------------|----------------------------|
----------------------------|----------------|----------------------------|
--4-----4--4L----4s---------|--11s7--6s-4----|--4-----4--4L----4s---------|
-----2----------------------|----------------|-----2----------------------|
----------------------------|----------------|----------------------------|
--4--------3L----3s---------|--10s7--5s-4----|--4--------3L----3s---------|


----------------|----------------------------|----------------------------|
----------------|----------------------------|----------------------------|
--11s7--6s-4----|--4-----4--4L----4----------|--4-----4--4L----4----------|
----------------|-----2----------------------|-----2----------------------|
----------------|----------------------------|----------------------------|
--10s7--5s-4----|--4--------3L----3----------|--4--------3L----3----------|


----------------------------|----------------------------|
--2--2--2--2--2--2--2--2----|--2--2--2--2--2--2--2--2----|
--2--2--2--2--2--2--2--2----|--2--2--2--2--2--2--2--2----|
--2--2--2--2--2--2--2--2----|--2--2--2--2--2--2--2--2----|
--4--4--4--4--4--4--4--4----|--4--4--4--4--4--4--4--4----|
----------------------------|----------------------------|


----------------------------|----------------------------|
--5--5--5--5--5--5--5--5----|--8--8--8--8--8--8--8--8----|
--4--4--4--4--4--4--4--4----|--7--7--7--7--7--7--7--7----|
--6--6--6--6--6--6--6--6----|--9--9--9--9--9--9--9--9----|
--7--7--7--7--7--7--7--7----|--10-10-10-10-10-10-10-10---|
----------------------------|----------------------------|


----------------------------|----------------------------|
--2--2--2--2--2--2--2--2----|--2--2--2--2--2--2--2--2----|
--2--2--2--2--2--2--2--2----|--2--2--2--2--2--2--2--2----|
--2--2--2--2--2--2--2--2----|--2--2--2--2--2--2--2--2----|
--4--4--4--4--4--4--4--4----|--4--4--4--4--4--4--4--4----|
----------------------------|----------------------------|


----------------------------|----------------------------|
--5--5--5--5--5--5--5--5----|--8--8--8--8--8--8--8--8----|
--4--4--4--4--4--4--4--4----|--7--7--7--7--7--7--7--7----|
--6--6--6--6--6--6--6--6----|--9--9--9--9--9--9--9--9----|
--7--7--7--7--7--7--7--7----|--10-10-10-10-10-10-10-10---|
----------------------------|----------------------------|


----------------------------|----------------------------|
--2--2--2--2--2--2--2--2----|--2--2--2--2--2--2--2--2----|
--2--2--2--2--2--2--2--2----|--2--2--2--2--2--2--2--2----|
--2--2--2--2--2--2--2--2----|--2--2--2--2--2--2--2--2----|
--4--4--4--4--4--4--4--4----|--4--4--4--4--4--4--4--4----|
----------------------------|----------------------------|


----------------------------|----------------------------|
--5--5--5--5--5--5--5--5----|--8--8--8--8--8--8--8--8----|
--4--4--4--4--4--4--4--4----|--7--7--7--7--7--7--7--7----|
--6--6--6--6--6--6--6--6----|--9--9--9--9--9--9--9--9----|
--7--7--7--7--7--7--7--7----|--10-10-10-10-10-10-10-10---|
----------------------------|----------------------------|


----------------------------|----------------------------|
--2--2--2--2--2--2--2--2----|--2--2--2--2--2--2--2--2----|
--2--2--2--2--2--2--2--2----|--2--2--2--2--2--2--2--2----|
--2--2--2--2--2--2--2--2----|--2--2--2--2--2--2--2--2----|
--4--4--4--4--4--4--4--4----|--4--4--4--4--4--4--4--4----|
----------------------------|----------------------------|


----------------------------|----------------------------|
--5--5--5--5--5--5--5--5----|--8--8--8--8--8--8--8--8----|
--4--4--4--4--4--4--4--4----|--7--7--7--7--7--7--7--7----|
--6--6--6--6--6--6--6--6----|--9--9--9--9--9--9--9--9----|
--7--7--7--7--7--7--7--7----|--10-10-10-10-10-10-10-10---|
----------------------------|----------------------------|


----------------------------|----------------|----------------------------|
--8--8--8--8--8--8--8--8----|----------------|----------------------------|
--7--7--7--7--7--7--7--7----|--11s7--6s-4----|--4-----4--4L----4s---------|
--9--9--9--9--9--9--9--9----|----------------|-----2----------------------|
--10-10-10-10-10-10-10-10---|----------------|----------------------------|
----------------------------|--10s7--5s-4----|--4--------3L----3s---------|


----------------|----------------------------|----------------|
----------------|----------------------------|----------------|
--11s7--6s-4----|--4-----4--4L----4s---------|--11s7--6s-4----|
----------------|-----2----------------------|----------------|
----------------|----------------------------|----------------|
--10s7--5s-4----|--4--------3L----3s---------|--10s7--5s-4----|


----------------------------|----------------|----------------------------|
----------------------------|----------------|----------------------------|
--4-----4--4L----4s---------|--11s7--6s-4----|--4-----4--4L----4----------|
-----2----------------------|----------------|-----2----------------------|
----------------------------|----------------|----------------------------|
--4--------3L----3s---------|--10s7--5s-4----|--4--------3L----3----------|


----------------------------|----------------------------|
----------------------------|--2--2--2--2--2--2--2--2----|
--4-----4--4L----4----------|--2--2--2--2--2--2--2--2----|
-----2----------------------|--2--2--2--2--2--2--2--2----|
----------------------------|--4--4--4--4--4--4--4--4----|
--4--------3L----3----------|----------------------------|


----------------------------|----------------------------|
--2--2--2--2--2--2--2--2----|--5--5--5--5--5--5--5--5----|
--2--2--2--2--2--2--2--2----|--4--4--4--4--4--4--4--4----|
--2--2--2--2--2--2--2--2----|--6--6--6--6--6--6--6--6----|
--4--4--4--4--4--4--4--4----|--7--7--7--7--7--7--7--7----|
----------------------------|----------------------------|


----------------------------|----------------------------|
--8--8--8--8--8--8--8--8----|--2--2--2--2--2--2--2--2----|
--7--7--7--7--7--7--7--7----|--2--2--2--2--2--2--2--2----|
--9--9--9--9--9--9--9--9----|--2--2--2--2--2--2--2--2----|
--10-10-10-10-10-10-10-10---|--4--4--4--4--4--4--4--4----|
----------------------------|----------------------------|


----------------------------|----------------------------|
--2--2--2--2--2--2--2--2----|--5--5--5--5--5--5--5--5----|
--2--2--2--2--2--2--2--2----|--4--4--4--4--4--4--4--4----|
--2--2--2--2--2--2--2--2----|--6--6--6--6--6--6--6--6----|
--4--4--4--4--4--4--4--4----|--7--7--7--7--7--7--7--7----|
----------------------------|----------------------------|


----------------------------|----------------------------|
--8--8--8--8--8--8--8--8----|--2--2--2--2--2--2--2--2----|
--7--7--7--7--7--7--7--7----|--2--2--2--2--2--2--2--2----|
--9--9--9--9--9--9--9--9----|--2--2--2--2--2--2--2--2----|
--10-10-10-10-10-10-10-10---|--4--4--4--4--4--4--4--4----|
----------------------------|----------------------------|


----------------------------|----------------------------|
--2--2--2--2--2--2--2--2----|--5--5--5--5--5--5--5--5----|
--2--2--2--2--2--2--2--2----|--4--4--4--4--4--4--4--4----|
--2--2--2--2--2--2--2--2----|--6--6--6--6--6--6--6--6----|
--4--4--4--4--4--4--4--4----|--7--7--7--7--7--7--7--7----|
----------------------------|----------------------------|


----------------------------|----------------------------|
--8--8--8--8--8--8--8--8----|--2--2--2--2--2--2--2--2----|
--7--7--7--7--7--7--7--7----|--2--2--2--2--2--2--2--2----|
--9--9--9--9--9--9--9--9----|--2--2--2--2--2--2--2--2----|
--10-10-10-10-10-10-10-10---|--4--4--4--4--4--4--4--4----|
----------------------------|----------------------------|


----------------------------|----------------------------|
--2--2--2--2--2--2--2--2----|--5--5--5--5--5--5--5--5----|
--2--2--2--2--2--2--2--2----|--4--4--4--4--4--4--4--4----|
--2--2--2--2--2--2--2--2----|--6--6--6--6--6--6--6--6----|
--4--4--4--4--4--4--4--4----|--7--7--7--7--7--7--7--7----|
----------------------------|----------------------------|


----------------------------|----------------------------|----------------|
--8--8--8--8--8--8--8--8----|--8--8--8--8--8--8--8--8----|----------------|
--7--7--7--7--7--7--7--7----|--7--7--7--7--7--7--7--7----|--11s7--6s-4----|
--9--9--9--9--9--9--9--9----|--9--9--9--9--9--9--9--9----|----------------|
--10-10-10-10-10-10-10-10---|--10-10-10-10-10-10-10-10---|----------------|
----------------------------|----------------------------|--10s7--5s-4----|


----------------------------|-------||
----------------------------|-------||
--4-----4--4L----4L---------|--4----||
-----2----------------------|-------||
----------------------------|-------||
--4--------3L----3L---------|--3----||
comments
We did not receive enough feedback on this tab! Please rate:
print report bad tab
1 2 3 4 5
I want to post or [tab]
guest
You may want to rate the tab now too:
select rating
Please do not post tabs as comments. Select "correction" instead!