Oops, an error
Loading. Please wait.

Bakit Ba Tab

ver5
ver5
More versions @911Tabs.com
13,933 views 30 this week
3 commentsread comments
1 2 3 4 5
excellent!
x 10
Autoscroll
+/-
esc
set tempo
stop
Contributor
WARNING: You are trying to view
                                    content from Ultimate-Guitar.com
                                    in an unauthorized application,
                                    which is prohibited.

                                    Please use an official Ultimate
                                    Guitar Tabs application for iPhone,
                                    iPad or Android to access legitimate
                                    chords, guitar, bass, and drum tabs
                                    from Ultimate-Guitar.com database.

                                    Type "ultimate guitar tabs" in Apple
                                    App Store's or Android Market's
                                    search to find the application.
Mabuhay ang mga OPM songs! Just thought of making this tab coz 1 of my classmate wanted 
learn this song. might as well post it here. if u got any questions email me at
or add me in friendster or myspace! hehe... enjoy.

TUNINNG : Standard e-B-G-D-A-E

Intro : G - Em - C - D 2x

Verse I :
Guitar II : G - Bm - Em - Am - D
Guitar I  :
    G Bm                Em Am D
e|--------8/10-7h8-7-------------8p7-8p7-8p7---------------------------|
B|-------------------8-----------------------8-------------------------|
G|---------------------------------------------------------------------|
D|---------------------------------------------------------------------|
A|---------------------------------------------------------------------|
E|---------------------------------------------------------------------|
    G Bm                Em Am D
e|--------7-8-10-8-7-------------8p7-8p7-8p7---------------------------|
B|-------------------8-----------------------8-------------------------|
G|--------7-7-7--7-7---------------------------------------------------|
D|---------------------------------------------------------------------|
A|---------------------------------------------------------------------|
E|---------------------------------------------------------------------|
    G Bm                Em Am D
e|--------8/10-7h8-7-------------8p7-8p7-8p7---------------------------|
B|-------------------8-----------------------8-------------------------|
G|---------------------------------------------------------------------|
D|---------------------------------------------------------------------|
A|---------------------------------------------------------------------|
E|---------------------------------------------------------------------|
    G Bm                Em Am D
e|--------7-8-10-8-7-----------------10--------------------------------|
B|-------------------8-----------7h8-----------------------------------|
G|--------7-7-7--7-7---------------------------------------------------|
D|---------------------------------------------------------------------|
A|---------------------------------------------------------------------|
E|---------------------------------------------------------------------|

Chorus :
Guitar II : G - Em - C - D 2x
            C - D 3x
            G - Em - C - D 2x
Guitar I :
     G            Em
e|---7-----8-7--------7-----7------------------------------------------|
B|-----8-------8--------8-----8----------------------------------------|
G|-------9--------7/9-----9-----9--------------------------------------|
D|---------------------------------------------------------------------|
A|---------------------------------------------------------------------|
E|---------------------------------------------------------------------|
     C             D
e|---3-----5-3-----5-----7-5-------------------------------------------|
B|-----5-------5-----7-------7-----------------------------------------|
G|-------5-------5-----7-------7---------------------------------------|
D|---------------------------------------------------------------------|
A|---------------------------------------------------------------------|
E|---------------------------------------------------------------------|
     G            Em
e|---7-----8-7--------7-----7------------------------------------------|
B|-----8-------8--------8-----8----------------------------------------|
G|-------9--------7/9-----9-----9--------------------------------------|
D|---------------------------------------------------------------------|
A|---------------------------------------------------------------------|
E|---------------------------------------------------------------------|
     C             D
e|---3-----5-3-----5-----7-5-------------------------------------------|
B|-----5-------5-----7-------7-----------------------------------------|
G|-------5-------5-----7-------7---------------------------------------|
D|---------------------------------------------------------------------| 4x
A|---------------------------------------------------------------------|
E|---------------------------------------------------------------------|
     G            Em
e|---7-----8-7--------7-----7------------------------------------------|
B|-----8-------8--------8-----8----------------------------------------|
G|-------9--------7/9-----9-----9--------------------------------------|
D|---------------------------------------------------------------------|
A|---------------------------------------------------------------------|
E|---------------------------------------------------------------------|
     C             D
e|---3-----5-3-----5-----7-5-------------------------------------------|
B|-----5-------5-----7-------7-----------------------------------------|
G|-------5-------5-----7-------7---------------------------------------|
D|---------------------------------------------------------------------|
A|---------------------------------------------------------------------|
E|---------------------------------------------------------------------|
     G            Em
e|---7-----8-7--------7-----7------------------------------------------|
B|-----8-------8--------8-----8----------------------------------------|
G|-------9--------7/9-----9-----9--------------------------------------|
D|---------------------------------------------------------------------|
A|---------------------------------------------------------------------|
E|---------------------------------------------------------------------|
     C             D
e|---3-----5-3-----5-----7-5-----7-------------------------------------|
B|-----5-------5-----7-------7-----------------------------------------|
G|-------5-------5-----7-------7---------------------------------------|
D|---------------------------------------------------------------------|
A|---------------------------------------------------------------------|
E|---------------------------------------------------------------------|

Verse II :
Guitar II: G - Bm - Em - Am - D
Guitar I :
    G Bm                Em Am D
e|--------8/10-7h8-7-------------8p7-8p7-8p7---------------------------|
B|-------------------8-----------------------8-------------------------|
G|---------------------------------------------------------------------|
D|---------------------------------------------------------------------|
A|---------------------------------------------------------------------|
E|---------------------------------------------------------------------|
     G Bm               Em Am D
e|---------7-8-10-8-7------------8/10-8p7------------------------------|
B|--------------------8-------------------8---8/10-10/12---------------|
G|---------7-7-7--7-7-----------------------7--------------------------|
D|---------------------------------------------------------------------|
A|---------------------------------------------------------------------|
E|---------------------------------------------------------------------|
     G Bm               Em Am D
e|---------8/10-7h8-7------------8/10-7h8-7----------------------------|
B|--------------------8---------------------8--------------------------|
G|--------------------------------------------7------------------------|
D|---------------------------------------------------------------------|
A|---------------------------------------------------------------------|
E|---------------------------------------------------------------------|
     G Bm               Em Am D
e|---------7-8-10-8-7----------------10--------------------------------|
B|--------------------8----------7h8-----------------------------------|
G|---------7-7-7--7-7--------------------------------------------------|
D|---------------------------------------------------------------------|
A|---------------------------------------------------------------------|
E|---------------------------------------------------------------------|

Chorus :
Guitar II: G - Em - C - D 2x
            C - D 3x
            G - Em - C - D 2x
Guitar I :
     G            Em
e|---7-----8-7--------7-----7------------------------------------------|
B|-----8-------8--------8-----8----------------------------------------|
G|-------9--------7/9-----9-----9--------------------------------------|
D|---------------------------------------------------------------------|
A|---------------------------------------------------------------------|
E|---------------------------------------------------------------------|
     C             D
e|---3-----5-3-----5-----7-5-------------------------------------------|
B|-----5-------5-----7-------7-----------------------------------------|
G|-------5-------5-----7-------7---------------------------------------|
D|---------------------------------------------------------------------|
A|---------------------------------------------------------------------|
E|---------------------------------------------------------------------|
     G            Em
e|---7-----8-7--------7-----7------------------------------------------|
B|-----8-------8--------8-----8----------------------------------------|
G|-------9--------7/9-----9-----9--------------------------------------|
D|---------------------------------------------------------------------|
A|---------------------------------------------------------------------|
E|---------------------------------------------------------------------|
     C             D
e|---3-----5-3-----5-----7-5-------------------------------------------|
B|-----5-------5-----7-------7-----------------------------------------|
G|-------5-------5-----7-------7---------------------------------------| 4x
D|---------------------------------------------------------------------|
A|---------------------------------------------------------------------|
E|---------------------------------------------------------------------|

Solo:
Guitar II: Same chords in chorus
Guitar I :
e|---------------------------------------------------------------------|
B|------------------7-8-10-8-10/12-12--12-10-8-10-8-7-8-7---7-8/10-10--|
G|--------------7-9---------------------------------------7------------|
D|---------9-10--------------------------------------------------------|
A|---10-12-------------------------------------------------------------|
E|---------------------------------------------------------------------|

e|---10-8-7-10-8-7-----------------------------------------------------|
B|-----------------10-8-10-8-7/8-8----------7-8-10-8-7-------7-8-10----|
G|--------------------------------------7-9------------9-7-9-----------|
D|---------------------------------------------------------------------|
A|---------------------------------------------------------------------|
E|---------------------------------------------------------------------|

e|---10-8-7-8---10-8-7------10-8-7-8---10-8-7--------------------------|
B|------------8--------8-10----------8--------8-10---------------------|
G|---------------------------------------------------------------------|
D|---------------------------------------------------------------------|
A|---------------------------------------------------------------------|
E|---------------------------------------------------------------------|

e|---10-8-7-8---10-8-7-------------------------------------------------|
B|------------8--------8-8/10-10/12-12-12------------------------------|
G|---------------------------------------------------------------------|
D|---------------------------------------------------------------------|
A|---------------------------------------------------------------------|
E|---------------------------------------------------------------------|

e|------12-10-9-10-9---------------------------------------------------|
B|---12--------------10-10/12-10---------------------------------------|
G|---------------------------------------------------------------------|
D|---------------------------------------------------------------------|
A|---------------------------------------------------------------------|
E|---------------------------------------------------------------------|

Last Chorus 2 frets Higher.
Guitar II: A - F#m - D - E 2x
           D - E 3x
           A - F#m - D - E 2x
Guitar I :
     A                F#m
e|---9-------10-9----------9-------9-----------------------------------|
B|-----10---------10---------10------10--------------------------------|
G|--------11----------9/11------11------11-----------------------------|
D|---------------------------------------------------------------------|
A|---------------------------------------------------------------------|
E|---------------------------------------------------------------------|
     D                E
e|---5-----7-5--------7-----9-7----------------------------------------|
B|-----7-------7--------9-------9--------------------------------------|
G|-------7-------7--------9-------9------------------------------------|
D|---------------------------------------------------------------------|
A|---------------------------------------------------------------------|
E|---------------------------------------------------------------------|
     A                F#m
e|---9-------10-9----------9-------9-----------------------------------|
B|-----10---------10---------10------10--------------------------------|
G|--------11----------9/11------11------11-----------------------------|
D|---------------------------------------------------------------------|
A|---------------------------------------------------------------------|
E|---------------------------------------------------------------------|
     D                E
e|---5-----7-5--------7-----9-7----------------------------------------|
B|-----7-------7--------9-------9--------------------------------------|
G|-------7-------7--------9-------9------------------------------------|
D|---------------------------------------------------------------------| 4x
A|---------------------------------------------------------------------|
E|---------------------------------------------------------------------|
     A                F#m
e|---9-------10-9----------9-------9-----------------------------------|
B|-----10---------10---------10------10--------------------------------|
G|--------11----------9/11------11------11-----------------------------|
D|---------------------------------------------------------------------|
A|---------------------------------------------------------------------|
E|---------------------------------------------------------------------|
     D                E
e|---5-----7-5--------7-----9-7----------------------------------------|
B|-----7-------7--------9-------9--------------------------------------|
G|-------7-------7--------9-------9------------------------------------|
D|---------------------------------------------------------------------|
A|---------------------------------------------------------------------|
E|---------------------------------------------------------------------|
     A                F#m
e|---9-------10-9----------9-------9-----------------------------------|
B|-----10---------10---------10------10--------------------------------|
G|--------11----------9/11------11------11-----------------------------|
D|---------------------------------------------------------------------|
A|---------------------------------------------------------------------|
E|---------------------------------------------------------------------|
     D                E
e|---5-----7-5--------7-----9-7-----9----------------------------------|
B|-----7-------7--------9-------9--------------------------------------|
G|-------7-------7--------9-------9------------------------------------|
D|---------------------------------------------------------------------|
A|---------------------------------------------------------------------|
E|---------------------------------------------------------------------|

Hope u learn something from it. .\m/
comments
print report bad tab
3 comments total.
0 reply
lolola wrote on October 25 2006, 11:53 am

NICE! saktong sakto! salamat!

0 reply
ric_007 wrote on October 29 2006, 09:35 pm

oist... ric to... ok ung tab mo ah.... ung gitara ng parokya e tab mo din.... ^^,

0 reply
Rex Sangrones wrote on October 29 2006, 10:01 pm

pag my time ako pre basta ikaw! ill do my best ! 2 xe gitara dun e kya mejo mahirap i convert sa isa... ala pkong katulong d2.

I want to post or [tab]
guest
You may want to rate the tab now too:
select rating
Please do not post tabs as comments. Select "correction" instead!