Oops, an error
Loading. Please wait.

Bakit Ba Tab

ver6
ver6
More versions @911Tabs.com
4,030 views 33 this week
no commentswrite comment
1 2 3 4 5
please rate
Autoscroll
+/-
esc
set tempo
stop
Contributor
Difficulty
intermediate
Hey! There's an official Ultimate Guitar app which is ideal
for learning songs when you're away from computer. Get the app
WARNING: You are trying to view
                                    content from Ultimate-Guitar.com
                                    in an unauthorized application,
                                    which is prohibited.

                                    Please use an official Ultimate
                                    Guitar Tabs application for iPhone,
                                    iPad or Android to access legitimate
                                    chords, guitar, bass, and drum tabs
                                    from Ultimate-Guitar.com database.

                                    Type "ultimate guitar tabs" in Apple
                                    App Store's or Android Market's
                                    search to find the application.
ahm kayo na po bahalang kumapa sa tunog ^^

but i think tama yan sa acoustic !!


Intro: G Em C D 2x

1 stanza

E||-------------------|-------------------|-------------------|
B||-------------------|-------------------|-------------------|
G||-------------------|-------------------|-------------------|
D||-------------------|-------------------|-------------------|
A||-------------------|-------------------|-------------------|
E||-------------------|-------------------|-------------------|

E||----7s10-7-8-7------------------------------------------------------------|
B||---------------8----------------------------------------------------------|
G||--------------------------------------------------------------------------|
D||--------------------------------------------------------------------------|
A||--------------------------------------------------------------------------|
E||--------------------------------------------------------------------------|

E||----8p7-8p7-8p7-----------------------------------------------------------|
B||----------------8---------------------------------------------------------|
G||--------------------------------------------------------------------------|
D||--------------------------------------------------------------------------|
A||--------------------------------------------------------------------------|
E||--------------------------------------------------------------------------|

E||------7-8-10-8-7----------------------------------------------------------|
B||------7---------8---------------------------------------------------------|
G||------7-------------------------------------------------------------------|
D||--------------------------------------------------------------------------|
A||--------------------------------------------------------------------------|
E||--------------------------------------------------------------------------|

E||----8p7-8p7-8p7-----------------------------------------------------------|
B||----------------8---------------------------------------------------------|
G||--------------------------------------------------------------------------|
D||--------------------------------------------------------------------------|
A||--------------------------------------------------------------------------|
E||--------------------------------------------------------------------------|

E||----7s10-7-8-7------------------------------------------------------------|
B||---------------8----------------------------------------------------------|
G||--------------------------------------------------------------------------|
D||--------------------------------------------------------------------------|
A||--------------------------------------------------------------------------|
E||--------------------------------------------------------------------------|

E||----8p7-8p7-8p7-----------------------------------------------------------|
B||----------------8---------------------------------------------------------|
G||--------------------------------------------------------------------------|
D||--------------------------------------------------------------------------|
A||--------------------------------------------------------------------------|
E||--------------------------------------------------------------------------|

E||------7-8-10-8-7----------------------------------------------------------|
B||------7---------8---------------------------------------------------------|
G||------7-------------------------------------------------------------------|
D||--------------------------------------------------------------------------|
A||--------------------------------------------------------------------------|
E||--------------------------------------------------------------------------|

E||----------9---------------------------------------------------------------|
B||------7h8-----------------------------------------------------------------|
G||--------------------------------------------------------------------------|
D||--------------------------------------------------------------------------|
A||--------------------------------------------------------------------------|
E||--------------------------------------------------------------------------|


Chorus : G Em C D 2x
         C D 3x

2 stanza


E||----7s10-7-8-7-----------------------------------------------------------|
B||---------------8---------------------------------------------------------|
G||-------------------------------------------------------------------------|
D||-------------------------------------------------------------------------|
A||-------------------------------------------------------------------------|
E||-------------------------------------------------------------------------|

E||----8p7-8p7-8p7----------------------------------------------------------|
B||----------------8--------------------------------------------------------|
G||-------------------------------------------------------------------------|
D||-------------------------------------------------------------------------|
A||-------------------------------------------------------------------------|
E||-------------------------------------------------------------------------|

E||------7-8-10-8-7---------------------------------------------------------|
B||------7---------8--------------------------------------------------------|
G||------7------------------------------------------------------------------|
D||-------------------------------------------------------------------------|
A||-------------------------------------------------------------------------|
E||-------------------------------------------------------------------------|


E||--8p7--------------------------------------------------------------------|
B||------8---8-10-12--------------------------------------------------------|
G||--------7----------------------------------------------------------------|
D||-------------------------------------------------------------------------|
A||-------------------------------------------------------------------------|
E||-------------------------------------------------------------------------|

E||----7s10-7-8-7-----------------------------------------------------------|
B||---------------8---------------------------------------------------------|
G||-------------------------------------------------------------------------|
D||-------------------------------------------------------------------------|
A||-------------------------------------------------------------------------|
E||-------------------------------------------------------------------------|

E||--7s10-7-8-7-------------------------------------------------------------|
B||-------------8-----------------------------------------------------------|
G||----------------7--------------------------------------------------------|
D||-------------------------------------------------------------------------|
A||-------------------------------------------------------------------------|
E||-------------------------------------------------------------------------|

E||------7-8-10-8-7---------------------------------------------------------|
B||------7---------8--------------------------------------------------------|
G||------7------------------------------------------------------------------|
D||-------------------------------------------------------------------------|
A||-------------------------------------------------------------------------|
E||-------------------------------------------------------------------------|

E||----------9--------------------------------------------------------------|
B||------7h8----------------------------------------------------------------|
G||-------------------------------------------------------------------------|
D||-------------------------------------------------------------------------|
A||-------------------------------------------------------------------------|
E||-------------------------------------------------------------------------|

Chorus : G Em C D 2x
         C D 3x

Adlib :

E||---------------------5---5\7-7-----------------------------10-8-7-10-8-7-|
B||---------------5-6-7---7-------10-8-10-8-7-8-7---7-8s10-10---------------|
G||---------4-5-7---------------------------------9-------------------------|
D||-----5-7-----------------------------------------------------------------|
A||-------------------------------------------------------------------------|
E||-------------------------------------------------------------------------|

E||--------------------------------------------------------------------------|
B||---10-8--10-8-7-8-----7-8-10-8-7-------7-8-10-----------------------------|
G||------------------7-9------------9-7-9------------------------------------|
D||--------------------------------------------------------------------------|
A||--------------------------------------------------------------------------|
E||--------------------------------------------------------------------------|

E||10-8-7-8---10-8-7--------10-8-7-8---10-8-7--------10-8-7-8---10-8-7--------|
B||---------8--------8-8s10----------8--------8-8s10----------8--------8-8s10-|
G||---------------------------------------------------------------------------|
D||---------------------------------------------------------------------------|
A||---------------------------------------------------------------------------|
E||---------------------------------------------------------------------------|


E||--------------------------------12-10-9-10-10-9p--------------------------|
B||--10---------10--------10s12-12------------------12^-10~------------------|
G||--------------------------------------------------------------------------|
D||--------------------------------------------------------------------------|
A||--------------------------------------------------------------------------|
E||--------------------------------------------------------------------------|

Chorus 2 : A F#m D E 2x
           D E 3x

the end!! ^^v
comments
We did not receive enough feedback on this tab! Please rate:
print report bad tab
1 2 3 4 5
I want to post or [tab]
guest
You may want to rate the tab now too:
select rating
Please do not post tabs as comments. Select "correction" instead!