Oops, an error
Loading. Please wait.

Hypnotic Tab

473 views 1 this week
no commentswrite comment
1 2 3 4 5
excellent!
x 1
Autoscroll
+/-
esc
set tempo
stop
Contributor
Hey! There's an official Ultimate Guitar app which is ideal
for learning songs when you're away from computer. Get the app
WARNING: You are trying to view
                                    content from Ultimate-Guitar.com
                                    in an unauthorized application,
                                    which is prohibited.

                                    Please use an official Ultimate
                                    Guitar Tabs application for iPhone,
                                    iPad or Android to access legitimate
                                    chords, guitar, bass, and drum tabs
                                    from Ultimate-Guitar.com database.

                                    Type "ultimate guitar tabs" in Apple
                                    App Store's or Android Market's
                                    search to find the application.
Sicmonic                                             http://www.sicmonic.com/
Hypnotic                                       http://www.myspace.com/sicmonic
Tabbed by U B the band (Phil)
Tuning B F# B E G# C#

Legend
~-tremolo pick                   pm-palm mute                /-slide up
\-slide down                     v-vibrato                   PH-pinch harmonic

Intro: Guitar 2 (Distorted - Tremolo Pick) RAY: PLAY 2 TIMES
C#|--10~~~~~~~~~~~~~~~~11~~~~~~~~~~~~~~~~-9~~~~~~~~~~~~~~~~~~~~~~~~~~~~~~~~(/)|
G#|--15~~~~~~~~~~~~~~~~16~~~~~~~~~~~~~~~~14~~~~~~~~~~~~~~~~~~~~~~~~~~~~~~~~(/)|
 E|---------------------------------------------------------------------------|
 B|---------------------------------------------------------------------------|
F#|---------------------------------------------------------------------------|
 B|---------------------------------------------------------------------------|
                                                        Second Time Only---^

Intro: Guitars 1 & 2: (Distorted with Fuzz) ROBERT
C#|--------------------181818181818-17----------------------------------------|
G#|---------------------x-x-x-x-x-x--x----------------------------------------|
 E|--------------------151515151515-14---------------------------12-14-14-14--|
 B|--0--0---------------x-x-x-x-x-x--x---0--0---------------------x--x--x--x--|
F#|--0--0--------------131313131313-12---0--0--------------------10-12-12-12--|
 B|--0--0--------------------------------0--0---------------------------------|
     pmpm                                pmpm                                 |
                                                                              |
Intro: Guitar 2 (Distorted - Tremolo Pick) RAY                                |
C#|--17~~~~~~~~~~~~~~~~18~~~~~~~~~~~~~~~~16~~~~~~~~~~~~~~~~~~~~~~~~~~~~~~~~~--|
G#|--22~~~~~~~~~~~~~~~~23~~~~~~~~~~~~~~~~21~~~~~~~~~~~~~~~~~~~~~~~~~~~~~~~~~--|
 E|---------------------------------------------------------------------------|
 B|---------------------------------------------------------------------------|
F#|---------------------------------------------------------------------------|
 B|---------------------------------------------------------------------------|

Intro: Guitars 1 & 2: (Distorted with Fuzz) ROBERT
C#|--------------------131313131313-12----------------------------------------|
G#|---------------------x-x-x-x-x-x--x----------------------------------------|
 E|--------------------101010101010--9---------------------------6-/7--7------|
 B|--0--0---------------x-x-x-x-x-x--x---0--0--------------------x--x--x------|
F#|--0--0---------------8-8-8-8-8-8--7---0--0--------------------4-/5--5------|
 B|--0--0--------------------------------0--0---------------------------------|
     pmpm                                pmpm                                 |
                                                                              |
Intro: Guitar 2 (Distorted - Tremolo Pick) RAY                                |
C#|--17~~~~~~~~~~~~~~~~18~~~~~~~~~~~~~~~~16~~~~~~~~~~~~~~~~~~~~~~~~~~~~~~~~~--|
G#|--22~~~~~~~~~~~~~~~~23~~~~~~~~~~~~~~~~21~~~~~~~~~~~~~~~~~~~~~~~~~~~~~~~~~--|
 E|---------------------------------------------------------------------------|
 B|---------------------------------------------------------------------------|
F#|---------------------------------------------------------------------------|
 B|---------------------------------------------------------------------------|

Intro: Guitars 1 & 2 (Distorted)
C#|-------181818181818-17-------------------------13131313131312--------------|
G#|--------x-x-x-x-x-x--x--------------------------x-x-x-x-x-x-x--------------|
 E|-------151515151515-14-------12-14-14-14-------101010101010-9-------6-/7--7|
 B|--0--0--x-x-x-x-x-x----0--0---x--x--x--x--0--0--x-x-x-x-x-x-x-0--0--x--x--x|
F#|--0--0-131313131313-12-0--0--10-12-12-12--0--0--8-8-8-8-8-8-7-0--0--4-/5--5|
 B|--0--0-----------------0--0---------------0--0----------------0--0---------|
     pmpm                 pmpm               pmpm                pmpm

Verse 1: Guitar 1 (Clean)
C#|----------0-----0-----------------------------0-----0----------------------|
G#|---------------------------------------------------------------------------|
 E|------7-----7------7----------------------7-----7--------------------------|
 B|----7---7-----7------7------------------7---7-----7----7-------------------|
F#|--5-----------------------------------6------------------6-----------------|
 B|---------------------------------------------------------------------------|
                                                                              |
Verse 1: Guitar 2 (Distorted)                                                 |
C#|---------------------------------------------------------------------------|
G#|---------------------------------------------------------------------------|
 E|---------------------------------------------------------------------------|
 B|--0------------------------------------------------------------------------|
F#|--0------------------------------------------------------------------------|
 B|--0------------------------------------------------------------------------|

Verse 1: Guitar 1 (Clean)
C#|----------0-----0---------------------------0-5-----5-6-----4--------------|
G#|---------------------------------------------------------------------------|
 E|------7-----7------7----------------------7-----7-------7-----7------------|
 B|----7---7-----7------7------------------7---------7-------7-----7---7------|
F#|--5-----------------------------------6---------------------------6--------|
 B|---------------------------------------------------------------------------|
                                                                              |
Verse 1: Guitar 2 (Distorted)                                                 |
C#|---------------------------------------------------------------------------|
G#|---------------------------------------------------------------------------|
 E|--7----------------------------7-/9--9--------------10----/12--------------|
 B|---------------------------------------------------------------------------|
F#|---------------------------------------------------------------------------|
 B|---------------------------------------------------------------------------|

Verse 1: Guitar 1 (Clean)
C#|----------0-----0-----------------------------0-----0----------------------|
G#|---------------------------------------------------------------------------|
 E|------7-----7------7----------------------7-----7--------------------------|
 B|----7---7-----7------7------------------7---7-----7----7-------------------|
F#|--5-----------------------------------6------------------6-----------------|
 B|---------------------------------------------------------------------------|
                                                                              |
Verse 1: Guitar 2 (Distorted)                                                 |
C#|--------------------------8------------------------------------------------|
G#|----------11---10-10--------11-10------------------------------------------|
 E|--7-------------------------------10------------9-----------------10--9----|
 B|---------------------------------------------------------------------------|
F#|---------------------------------------------------------------------------|
 B|---------------------------------------------------------------------------|

Verse 1: Guitar 1 (Clean)                                (Distorted)
C#|----------0-----0---------------------------0-5------|---------------------|
G#|-----------------------------------------------------|---------------------|
 E|------7-----7------7----------------------7-----7----|---------------------|
 B|----7---7-----7------7------------------7---------7--|--0--0---------------|
F#|--5-----------------------------------6--------------|--0--0--00000000-----|
 B|-----------------------------------------------------|--0--0--00000000-----|
                                                           pm pm pmpmpmpm     |
Verse 1: Guitar 2 (Distorted)                                                 |
C#|---------------------------------------------------------------------------|
G#|---------------------------------------------------------------13--\-------|
 E|--7----------------------------9-/10-10-----------12----/14----------------|
 B|---------------------------------------------------------------------------|
F#|---------------------------------------------------------------------------|
 B|---------------------------------------------------------------------------|

Chorus: Guitars 1 & 2 (Distorted)
C#|-------181818181818-17-------------------------13131313131312--------------|
G#|--------x-x-x-x-x-x--x--------------------------x-x-x-x-x-x-x--------------|
 E|-------151515151515-14-------12-14-14-14-------101010101010-9-------6-/7-5v|
 B|--0--0--x-x-x-x-x-x----0--0---x--x--x--x--0--0--x-x-x-x-x-x-x-0--0--x--x---|
F#|--0--0-131313131313-12-0--0--10-12-12-12--0--0--8-8-8-8-8-8-7-0--0--4-/5---|
 B|--0--0-----------------0--0---------------0--0----------------0--0---------|
     pmpm                 pmpm               pmpm                pmpm       PH

Chorus: Guitars 1 & 2 (Distorted)
C#|-------181818181818-17-------------------------13131313131312--------------|
G#|--------x-x-x-x-x-x--x--------------------------x-x-x-x-x-x-x--------------|
 E|-------151515151515-14-------12-14-14-14-------101010101010-9-------6-/7--7|
 B|--0--0--x-x-x-x-x-x----0--0---x--x--x--x--0--0--x-x-x-x-x-x-x-0--0--x--x--x|
F#|--0--0-131313131313-12-0--0--10-12-12-12--0--0--8-8-8-8-8-8-7-0--0--4-/5--5|
 B|--0--0-----------------0--0---------------0--0----------------0--0---------|
     pmpm                 pmpm               pmpm                pmpm

Chorus: Guitars 1 & 2 (Distorted)
C#|-------181818181818-17-------------------------13131313131312--------------|
G#|--------x-x-x-x-x-x--x--------------------------x-x-x-x-x-x-x--------------|
 E|-------151515151515-14-------12-14-14-14-------101010101010-9-------6-/7--7|
 B|--0--0--x-x-x-x-x-x----0--0---x--x--x--x--0--0--x-x-x-x-x-x-x-0--0--x--x--x|
F#|--0--0-131313131313-12-0--0--10-12-12-12--0--0--8-8-8-8-8-8-7-0--0--4-/5--5|
 B|--0--0-----------------0--0---------------0--0----------------0--0---------|
     pmpm                 pmpm               pmpm                pmpm

Verse 2: Guitar 1 (Clean)
C#|----------0-----0-----------------------------0-----0----------------------|
G#|---------------------------------------------------------------------------|
 E|------7-----7------7----------------------7-----7--------------------------|
 B|----7---7-----7------7------------------7---7-----7----7-------------------|
F#|--5-----------------------------------6------------------6-----------------|
 B|---------------------------------------------------------------------------|
                                                                              |
Verse 2: Guitar 2 (Distorted)                                                 |
C#|---------------------------------------------------------------------------|
G#|---------------------------------------------------------------------------|
 E|---------------------------------------------------------------------------|
 B|--0------------------------------------------------------------------------|
F#|--0------------------------------------------------------------------------|
 B|--0------------------------------------------------------------------------|

Verse 2: Guitar 1 (Clean)
C#|----------0-----0---------------------------0-5-----5-6-----4--------------|
G#|---------------------------------------------------------------------------|
 E|------7-----7------7----------------------7-----7-------7-----7------------|
 B|----7---7-----7------7------------------7---------7-------7-----7---7------|
F#|--5-----------------------------------6---------------------------6--------|
 B|---------------------------------------------------------------------------|
                                                                              |
Verse 2: Guitar 2 (Distorted)                                                 |
C#|---------------------------------------------------------------------------|
G#|---------------------------------------------------------------------------|
 E|--7----------------------------7-/9--9--------------10----/12--------------|
 B|---------------------------------------------------------------------------|
F#|---------------------------------------------------------------------------|
 B|---------------------------------------------------------------------------|
     ^-Cresendo

Verse 2: Guitar 1 (Clean)
C#|----------0-----0-----------------------------0-----0----------------------|
G#|---------------------------------------------------------------------------|
 E|------7-----7------7----------------------7-----7--------------------------|
 B|----7---7-----7------7------------------7---7-----7----7-------------------|
F#|--5-----------------------------------6------------------6-----------------|
 B|---------------------------------------------------------------------------|
                                                                              |
Verse 2: Guitar 2 (Distorted)                                                 |
C#|----------8----------------8----8-/10------10/13-13--13-12----12h13--------|
G#|--10-----------10-10---------10--------------------------------------------|
 E|---------------------------------------------------------------------------|
 B|---------------------------------------------------------------------------|
F#|---------------------------------------------------------------------------|
 B|---------------------------------------------------------------------------|

Verse 2: Guitar 1 (Clean)                                (Distorted)
C#|----------0-----0---------------------------0-5------|---------------------|
G#|-----------------------------------------------------|---------------------|
 E|------7-----7------7----------------------7-----7----|---------------------|
 B|----7---7-----7------7------------------7---------7--|--0--0---------------|
F#|--5-----------------------------------6--------------|--0--0--00000000-----|
 B|-----------------------------------------------------|--0--0--00000000-----|
                                                           pm pm Pmpmpmpm     |
Verse 2: Guitar 2 (Distorted)                                                 |
C#|--10-------------------\-------------18~~~~17~~~~18~~~~20~~~~22~~--\-------|
G#|---------------------------------------------------------------------------|
 E|---------------------------------------------------------------------------|
 B|---------------------------------------------------------------------------|
F#|---------------------------------------------------------------------------|
 B|---------------------------------------------------------------------------|

Chorus: Guitars 1 & 2 (Distorted)
C#|-------181818181818-17-------------------------13131313131312--------------|
G#|--------x-x-x-x-x-x--x--------------------------x-x-x-x-x-x-x--------------|
 E|-------151515151515-14-------12-14-14-14-------101010101010-9-------6-/7-5v|
 B|--0--0--x-x-x-x-x-x----0--0---x--x--x--x--0--0--x-x-x-x-x-x-x-0--0--x--x---|
F#|--0--0-131313131313-12-0--0--10-12-12-12--0--0--8-8-8-8-8-8-7-0--0--4-/5---|
 B|--0--0-----------------0--0---------------0--0----------------0--0---------|
     pmpm                 pmpm               pmpm                pmpm       PH

Chorus: Guitars 1 & 2 (Distorted)
C#|-------181818181818-17-------------------------13131313131312--------------|
G#|--------x-x-x-x-x-x--x--------------------------x-x-x-x-x-x-x--------------|
 E|-------151515151515-14-------12-14-14-14-------101010101010-9-------6-/7--7|
 B|--0--0--x-x-x-x-x-x----0--0---x--x--x--x--0--0--x-x-x-x-x-x-x-0--0--x--x--x|
F#|--0--0-131313131313-12-0--0--10-12-12-12--0--0--8-8-8-8-8-8-7-0--0--4-/5--5|
 B|--0--0-----------------0--0---------------0--0----------------0--0---------|
     pmpm                 pmpm               pmpm                pmpm

Chorus: Guitars 1 & 2 (Distorted)
C#|-------181818181818-17-------------------------13131313131312--------------|
G#|--------x-x-x-x-x-x--x--------------------------x-x-x-x-x-x-x--------------|
 E|-------151515151515-14-------12-14-14-14-------101010101010-9-------6-/7--7|
 B|--0--0--x-x-x-x-x-x----0--0---x--x--x--x--0--0--x-x-x-x-x-x-x-0--0--x--x--x|
F#|--0--0-131313131313-12-0--0--10-12-12-12--0--0--8-8-8-8-8-8-7-0--0--4-/5--5|
 B|--0--0-----------------0--0---------------0--0----------------0--0---------|
     pmpm                 pmpm               pmpm                pmpm

Bridge: Guitar 1 (Distorted & palm muted - Tremolo Pick)
C#|---------------------------------------------------------------------------|
G#|---------------------------------------------------------------------------|
 E|---------------------------------------------------------------------------|
 B|---------------------------------------------------------------------------|
F#|---------------------------------------15~~~~~~~~~~~~~~~14~~14\------------|
 B|--12~~~~~~~~~~~~~~~14~~~~~~~15~~~14~12---------------------------3333-3p0--|
                                                                              |
Bridge: Guitar 2 (Distorted & palm muted)                                     |
C#|---------------------------------------------------------------------------|
G#|---------------------------------------------------------------------------|
 E|---------------------------------------------------------------------------|
 B|---------------------------------------------------------------------------|
F#|--5555555555555555-77777777-8888-77-55-3333333333333333-2222-2p0-----------|
 B|-----------------------------------------------------------------3333-3p0--|

Bridge: Guitar 1 (Distorted & palm muted - Tremolo Pick)
C#|---------------------------------------------------------------------------|
G#|---------------------------------------------------------------------------|
 E|---------------------------------------------------------------------------|
 B|---------------------------------------------------------------------------|
F#|---------------------------------------15~~~~~~~~~~~~~~~14~~14\------------|
 B|--12~~~~~~~~~~~~~~~14~~~~~~~15~~~14~12---------------------------3333-3p0--|
                                                                              |
Bridge: Guitar 2 (Distorted & palm muted)                                     |
C#|---------------------------------------------------------------------------|
G#|---------------------------------------------------------------------------|
 E|---------------------------------------------------------------------------|
 B|---------------------------------------------------------------------------|
F#|--5555555555555555-77777777-8888-77-55-3333333333333333-2222-2p0-----------|
 B|-----------------------------------------------------------------3333-3p0--|

Bridge: Guitars 1 & 2 (Distorted)
C#|---------------------------------------------------------------------------|
G#|--3------------------------------------------------------------------------|
 E|--2------------------------------------------------------------------------|
 B|--0------------------------------------------------------------------------|
F#|--0------------------------------------------------------------------------|
 B|--0------------------------------------------------------------------------|

Bridge: Guitar 1 (Distorted)
C#|---------------------------------------------------------------------------|
G#|---------------------------------------------------------------------------|
 E|----------------------------------7-------------------------7--------------|
 B|---------------------------------------------------------------------------|
F#|---------------------------------------------------------------------------|
 B|---------------------------------------------------------------------------|
                                     ^-Cresendo                ^-Cresendo     |
Bridge: Guitar 2 (Distorted)                                                  |
C#|---------------------------------------------------------------------------|
G#|---------------------------------------------------------------------------|
 E|--7--------------------7-/9--9---------10-------\9----\7-7-----------------|
 B|---------------------------------------------------------------------------|
F#|---------------------------------------------------------------------------|
 B|---------------------------------------------------------------------------|
     ^-Cresendo

Bridge: Guitar 1 (Distorted)
C#|---------------------------------------------------------------------------|
G#|---------------------------------------------------------------------------|
 E|----------------------------------7-------------------------7--------------|
 B|---------------------------------------------------------------------------|
F#|---------------------------------------------------------------------------|
 B|---------------------------------------------------------------------------|
                                     ^-Cresendo                ^-Cresendo     |
Bridge: Guitar 2 (Distorted)                                                  |
C#|---------------------------------------------------------------------------|
G#|---------------------------------------------------------------------------|
 E|--7--------------------7-/9--9---------10-------\9----\7-7-----------------|
 B|---------------------------------------------------------------------------|
F#|---------------------------------------------------------------------------|
 B|---------------------------------------------------------------------------|
     ^-Cresendo

Bridge: Guitar 1 (Distorted)
C#|---------------------------------------------------------------------------|
G#|---------------------------------------------------------------------------|
 E|----------------------------------7-------------------------7--------------|
 B|---------------------------------------------------------------------------|
F#|---------------------------------------------------------------------------|
 B|---------------------------------------------------------------------------|
                                     ^-Cresendo                ^-Cresendo     |
Bridge: Guitar 2 (Distorted)                                                  |
C#|---------------------------------------------------------------------------|
G#|---------------------------------------------------------------------------|
 E|--10-9-7-10-9-7-10-9-10-9-7-10-9-7-10-9-10-9-7-10-9-7-10-9-10-9-7-------7-9|
 B|-----------------------------------------------------------------10-7-10---|
F#|---------------------------------------------------------------------------|
 B|---------------------------------------------------------------------------|

Bridge: Guitar 1 (Distorted)
C#|---------------------------------------------------------------------------|
G#|---------------------------------------------------------------------------|
 E|----------------------------------7-------------------------7--------------|
 B|---------------------------------------------------------------------------|
F#|---------------------------------------------------------------------------|
 B|---------------------------------------------------------------------------|
                                     ^-Cresendo                ^-Cresendo     |
Bridge: Guitar 2 (Distorted)                                                  |
C#|--13-121013-121013-1213-121013-121013-1213-121013-121013-1213-1210-----1012|
G#|------------------------------------------------------------------131013---|
 E|---------------------------------------------------------------------------|
 B|---------------------------------------------------------------------------|
F#|---------------------------------------------------------------------------|
 B|---------------------------------------------------------------------------|

Bridge: Guitars 1 & 2: (Distorted with Fuzz)
C#|---------------------------------------------------------------------------|
G#|---------------------------------------------------------------------------|
 E|---------------------------------------------------------------------------|
 B|--0--0---------0-0--0-0---------------0--0--------0-0--0-0-----------------|
F#|--0--0---------0-0--0-0---------------0--0--------0-0--0-0-----------------|
 B|--0--0---------0-0--0-0---------------0--0--------0-0--0-0-----------------|
     pmpm         pmpm pmpm              pmpm        pmpm pmpm                |
                                                                              |
Bridge: Guitar 2 (Distorted - Tremolo Pick)                                   |
C#|--17~~~~~~~~~~~~~~~~18~~~~~~~~~~~~~~~~16~~~~~~~~~~~~~~~10~~~~~~~~-5~~~~~~--|
G#|--22~~~~~~~~~~~~~~~~23~~~~~~~~~~~~~~~~21~~~~~~~~~~~~~~~15~~~~~~~~10~~~~~~--|
 E|---------------------------------------------------------------------------|
 B|---------------------------------------------------------------------------|
F#|---------------------------------------------------------------------------|
 B|---------------------------------------------------------------------------|

Bridge: Guitars 1 & 2: (Distorted with Fuzz)
C#|---------------------------------------------------------------------------|
G#|---------------------------------------------------------------------------|
 E|---------------------------------------------------------------------------|
 B|--0--0---------0-0--0-0---------------0--0--------0-0--0-0-----------------|
F#|--0--0---------0-0--0-0---------------0--0--------0-0--0-0-----------------|
 B|--0--0---------0-0--0-0---------------0--0--------0-0--0-0-----------------|
     pmpm         pmpm pmpm              pmpm        pmpm pmpm                |
                                                                              |
Bridge: Guitar 2 (Distorted - Tremolo Pick)                                   |
C#|--17~~~~~~~~~~~~~~~~18~~~~~~~~~~~~~~~~16~~~~~~~~~~~~~~~10~~~~~~~~-5~~~~~~--|
G#|--22~~~~~~~~~~~~~~~~23~~~~~~~~~~~~~~~~21~~~~~~~~~~~~~~~15~~~~~~~~10~~~~~~--|
 E|---------------------------------------------------------------------------|
 B|---------------------------------------------------------------------------|
F#|---------------------------------------------------------------------------|
 B|---------------------------------------------------------------------------|

Bridge: Guitar 1 (Distorted)
C#|------------------------181818181818-17------------------------------------|
G#|-------------------------x-x-x-x-x-x--x------------------------------------|
 E|------------------------151515151515-14-------------------------12-14-14-14|
 B|--0--0---------0-0--0-0--x-x-x-x-x-x--x-0--0--------0-0--0-0-----x--x--x--x|
F#|--0--0---------0-0--0-0-131313131313-12-0--0--------0-0--0-0----10-12-12-12|
 B|--0--0---------0-0--0-0-----------------0--0--------0-0--0-0---------------|
     pmpm         pmpm pmpm                pmpm        pmpm pmpm              |
                                                                              |
Bridge: Guitar 2 (Distorted - Tremolo Pick)                                   |
C#|--17~~~~~~~~~~~~~~~~18~~~~~~~~~~~~~~~~16~~~~~~~~~~~~~~~10~~~~~~~~-5~~~~~~--|
G#|--22~~~~~~~~~~~~~~~~23~~~~~~~~~~~~~~~~21~~~~~~~~~~~~~~~15~~~~~~~~10~~~~~~--|
 E|---------------------------------------------------------------------------|
 B|---------------------------------------------------------------------------|
F#|---------------------------------------------------------------------------|
 B|---------------------------------------------------------------------------|

Bridge: Guitar 1 (Distorted)
C#|------------------------13131313131311-------------------------------------|
G#|-------------------------x-x-x-x-x-x-x-------------------------------------|
 E|------------------------101010101010-9-------------------------6-/7--7-----|
 B|--0--0---------0-0--0-0--x-x-x-x-x-x-x-0--0--------0-0--0-0----x--x--x-----|
F#|--0--0---------0-0--0-0--8-8-8-8-8-8-7-0--0--------0-0--0-0----4-/5--5-----|
 B|--0--0---------0-0--0-0----------------0--0--------0-0--0-0----------------|
     pmpm         pmpm pmpm               pmpm        pmpm pmpm               |
                                                                              |
Bridge: Guitar 2 (Distorted - Tremolo Pick)                                   |
C#|--17~~~~~~~~~~~~~~~~18~~~~~~~~~~~~~~~~16~~~~~~~~~~~~~~~10~~~~~~~~-5~~~~~~--|
G#|--22~~~~~~~~~~~~~~~~23~~~~~~~~~~~~~~~~21~~~~~~~~~~~~~~~15~~~~~~~~10~~~~~~--|
 E|---------------------------------------------------------------------------|
 B|---------------------------------------------------------------------------|
F#|---------------------------------------------------------------------------|
 B|---------------------------------------------------------------------------|

Post Bridge: Guitar 1 (Distorted)
C#|---------------------------------------------------------------------------|
G#|---------------------------------------------------------------------------|
 E|---------------------------------------------------------------------------|
 B|-----------------------------------3p0----------------------------------3p0|
F#|-------------------------------2p0----------------------------------2p0----|
 B|--0-0000-0--0-0000-0--0-0000-0---------0-0000-0--0-0000-0--0-0000-0--------|
                                  PH  PH                               PH  PH

Post Bridge: Guitar 1 (Distorted)
C#|---------------------------------------------------------------------------|
G#|---------------------------------------------------------------------------|
 E|---------------------------------------------------------------------------|
 B|-----------------------------------3p0----------------------------------3p0|
F#|-------------------------------2p0----------------------------------2p0----|
 B|--0-0000-0--0-0000-0--0-0000-0---------0-0000-0--0-0000-0--0-0000-0--------|
                                  PH  PH                               PH  PH

Chorus: Guitars 1 & 2 (Distorted)
C#|-------181818181818-17-------------------------13131313131312--------------|
G#|--------x-x-x-x-x-x--x--------------------------x-x-x-x-x-x-x--------------|
 E|-------151515151515-14-------12-14-14-14-------101010101010-9-------6-/7--7|
 B|--0--0--x-x-x-x-x-x----0--0---x--x--x--x--0--0--x-x-x-x-x-x-x-0--0--x--x--x|
F#|--0--0-131313131313-12-0--0--10-12-12-12--0--0--8-8-8-8-8-8-7-0--0--4-/5--5|
 B|--0--0-----------------0--0---------------0--0----------------0--0---------|
     pmpm                 pmpm               pmpm                pmpm

Chorus: Guitars 1 & 2 (Distorted)
C#|-------181818181818-17-------------------------13131313131312--------------|
G#|--------x-x-x-x-x-x--x--------------------------x-x-x-x-x-x-x--------------|
 E|-------151515151515-14-------12-14-14-14-------101010101010-9-------6-/7--7|
 B|--0--0--x-x-x-x-x-x----0--0---x--x--x--x--0--0--x-x-x-x-x-x-x-0--0--x--x--x|
F#|--0--0-131313131313-12-0--0--10-12-12-12--0--0--8-8-8-8-8-8-7-0--0--4-/5--5|
 B|--0--0-----------------0--0---------------0--0----------------0--0---------|
     pmpm                 pmpm               pmpm                pmpm

Outro: Guitar 1 (Distorted - Tremolo Pick) PLAY 5 TIMES, 5th TIME NO PALM MUTE
C#|---------------------------------------------------------------------------|
G#|---------------------------------------------------------------------------|
 E|---------------------------------------------------------------------------|
 B|---------------------------------------------------------------------------|
F#|---------------------------------------15~~~~~~~~~~~~~~~14~~14\------------|
 B|--12~~~~~~~~~~~~~~~14~~~~~~~15~~~14~12---------------------------3333-3p0--|
                                                                              |
Outro: Guitar 2 (Distorted & palm muted)                                      |
C#|---------------------------------------------------------------------------|
G#|---------------------------------------------------------------------------|
 E|---------------------------------------------------------------------------|
 B|---------------------------------------------------------------------------|
F#|--5555555555555555-77777777-8888-77-55-3333333333333333-2222-2p0-----------|
 B|-----------------------------------------------------------------3333-3p0--|

Outro 2: Guitars 1 & 2 (Distorted) [NOTE: THIS PART ISN'T PLAYED LIVE]
C#|---------------------------------------------------------------------------|
G#|---------------------------------------------------------------------------|
 E|---------------------------------------------------------------------------|
 B|---------------------------------------------------------------------------|
F#|----------------------------------------------0----------------------------|
 B|--0000--3-1--0000--3-1--0000--3-1--0000--3-1--0----------------------------|
     pmpm       pmpm       pmpm       pmpm

Finished!


http://www.sicmonic.com/
http://www.myspace.com/sicmonic

comments
We did not receive enough feedback on this tab! Please rate:
print report bad tab
1 2 3 4 5
I want to post or [tab]
guest
You may want to rate the tab now too:
select rating
Please do not post tabs as comments. Select "correction" instead!