Oops, an error
Loading. Please wait.

Olsen Olsen Tab

ver1
ver1

Intro

Whole song

More versions @911Tabs.com
12,188 views 36 this week
no commentswrite comment
1 2 3 4 5
excellent!
x 5
add to favorites launch autoscroll
font size
0
reset
Autoscroll
+/-
esc
set tempo
stop
Contributor
WARNING: You are trying to view
                                    content from Ultimate-Guitar.com
                                    in an unauthorized application,
                                    which is prohibited.

                                    Please use an official Ultimate
                                    Guitar Tabs application for iPhone,
                                    iPad or Android to access legitimate
                                    chords, guitar, bass, and drum tabs
                                    from Ultimate-Guitar.com database.

                                    Type "ultimate guitar tabs" in Apple
                                    App Store's or Android Market's
                                    search to find the application.
Olsen Olsen, arranged for one guitar
I took this straight from http://www.hafssol.co.uk/ because i had a tough time finding 
and thought this will help you guys..

E||--------------------|--------------------|--------------------|
B||--------------------|--------------------|--------------------|
G||-----2-----2-----2--|-----2-----2-----2--|-----0-----0-----0--|
D||--0-----0-----0-----|--0-----0-----0-----|--2-----2-----2-----|
A||--------------------|--------------------|--------------------|
E||--------------------|--------------------|--------------------|

--------------------|--------------------|--------------------|
--------------------|--------------------|--------------------|
-----0-----0-----0--|-----2-----2-----2--|-----2-----2-----2--|
--2-----2-----2-----|--0-----0-----0-----|--0-----0-----0-----|
--------------------|--------------------|--------------------|
--------------------|--------------------|--------------------|

--------------------|--------------------||---5-----------------|
--------------------|--------3-----3-----||---------------------|
-----0-----0-----0--|-----0-----0-----0--||*-----2-----2-----2--|
--2-----2-----2-----|--2-----2-----2-----||*--0-----0-----0-----|
--------------------|--------------------||---------------------|
--------------------|--------------------||---------------------|

--------------------|--------------------|--5-----5-----7-----|
--------------------|--------------------|--------------------|
-----2-----2-----2--|-----0-----0-----0--|-----0-----0-----0--|
--0-----0-----0-----|--2-----2-----2-----|--2-----2-----------|
--------------------|--------------------|--------------7-----|
--------------------|--------------------|--------------------|

--5-----------------|--------2-----2-----|--2-----------3-----|
--------------------|--------------------|--------------------|
-----2-----2-----2--|-----2-----2-----2--|-----0-----0-----0--|
--0-----0-----0-----|--0-----0-----0-----|--2-----2-----2-----|
--------------------|--------------------|--------------------|
--------------------|--------------------|--------------------|

--------------------|--2-----------------|--2-----0-----------|
--------------------|--------------------|--------------3-----|
-----0-----0-----0--|-----2-----2-----2--|-----2-----2-----2--|
--2-----2-----2-----|--0-----0-----0-----|--0-----0-----0-----|
--------------------|--------------------|--------------------|
--------------------|--------------------|--------------------|

--------------3-----|--3-----2-----------|--------------5-----|
--------------------|--------------3-----|--------------------|
-----0-----0-----0--|-----0-----0-----0--|-----2-----2-----2--|
--2-----2-----2-----|--2-----2-----2-----|--0-----0-----0-----|
--------------------|--------------------|--------------------|
--------------------|--------------------|--------------------|

--5-----------5--7--|--5-----------------|--------------------|
--------------------|--------------------|--------3-----3-----|
-----2-----2--------|-----0-----0-----0--|-----0-----0-----0--|
--0-----0--------7--|--2-----2-----2-----|--2-----2-----2-----|
--------------5-----|--------------------|--------------------|
--------------------|--------------------|--------------------|

--5-----------------|--------------------|--------------------|
--------------------|--------------------|--------------------|
-----2-----2-----2--|-----2-----2-----2--|-----0-----0-----0--|
--0-----0-----0-----|--0-----0-----0-----|--2-----2-----2-----|
--------------------|--------------------|--------------------|
--------------------|--------------------|--------------------|

--5-----5-----7-----|--5-----------------|--------2-----2-----|
--------------------|--------------------|--------------------|
-----0-----0-----0--|-----2-----2-----2--|-----2-----2-----2--|
--2-----2-----------|--0-----0-----0-----|--0-----0-----0-----|
--------------7-----|--------------------|--------------------|
--------------------|--------------------|--------------------|

--2-----------3-----|--------------------|--2-----------------|
--------------------|--------------------|--------------------|
-----0-----0-----0--|-----0-----0-----0--|-----2-----2-----2--|
--2-----2-----2-----|--2-----2-----2-----|--0-----0-----0-----|
--------------------|--------------------|--------------------|
--------------------|--------------------|--------------------|

--2-----0-----------|--------------3-----|--3-----2-----------|
--------------3-----|--------------------|--------------3-----|
-----2-----2-----2--|-----0-----0-----0--|-----0-----0-----0--|
--0-----0-----0-----|--2-----2-----2-----|--2-----2-----2-----|
--------------------|--------------------|--------------------|
--------------------|--------------------|--------------------|

--------------5-----|--5-----------5--7--|--5-----------------|
--------------------|--------------------|--------------------|
-----2-----2-----2--|-----2-----2--------|-----0-----0-----0--|
--0-----0-----0-----|--0-----0--------7--|--2-----2-----2-----|
--------------------|--------------5-----|--------------------|
--------------------|--------------------|--------------------|

--------------------|--5-----------------|--------------------|
--------3-----3-----|--------------------|--------------------|
-----0-----0-----0--|-----2-----2-----2--|-----2-----2-----2--|
--2-----2-----2-----|--0-----0-----0-----|--0-----0-----0-----|
--------------------|--------------------|--------------------|
--------------------|--------------------|--------------------|

--------------------|--5-----5-----7-----|--5-----------------|
--------------------|--------------------|--------------------|
-----0-----0-----0--|-----0-----0-----0--|-----2-----2-----2--|
--2-----2-----2-----|--2-----2-----------|--0-----0-----0-----|
--------------------|--------------7-----|--------------------|
--------------------|--------------------|--------------------|

--------2-----2-----|--2-----------3-----|--------------5-----|
--------------------|--------------------|--------------------|
-----2-----2-----2--|-----0-----0-----0--|-----0-----0-----0--|
--0-----0-----0-----|--2-----2-----2-----|--2-----2-----2-----|
--------------------|--------------------|--------------------|
--------------------|--------------------|--------------------|

--5-----3-----2-----|--------------5-----|--5-----3-----2-----|
--------------------|--3-----------------|--------------------|
-----2-----2-----2--|-----2-----2-----2--|-----0-----0-----0--|
--0-----0-----0-----|--0-----0-----0-----|--2-----2-----2-----|
--------------------|--------------------|--------------------|
--------------------|--------------------|--------------------|

--------------5-----|--5-----3-----2-----|--------------5--7--|
--3-----------------|--------------------|--3-----------------|
-----0-----0-----0--|-----2-----2-----2--|-----2-----2--------|
--2-----2-----2-----|--0-----0-----0-----|--0-----0--------7--|
--------------------|--------------------|--------------5-----|
--------------------|--------------------|--------------------|

--5-----------------|--------------------|--3-----5-----------|
--------------------|--------3-----3-----|--------------------|
-----0-----0-----0--|-----0-----0-----0--|-----4-----4-----4--|
--2-----2-----2-----|--2-----2-----2-----|--5-----5-----5-----|
--------------------|--------------------|--------------------|
--------------------|--------------------|--------------------|

--5-----------------|--------------------|--------------------|
--------------8-----|--5-----------3-----|--3-----3-----3-----|
-----6-----6-----6--|-----2-----2-----2--|-----2-----2-----2--|
--7-----7-----7-----|--0-----0-----0-----|--0-----0-----0-----|
--------------------|--------------------|--------------------|
--------------------|--------------------|--------------------|

--3-----5-----------|--5-----------------|--------------------|
--------------------|--------------8-----|--5-----------3-----|
-----4-----4-----4--|-----6-----6-----6--|-----2-----2-----2--|
--5-----5-----5-----|--7-----7-----7-----|--0-----0-----0-----|
--------------------|--------------------|--------------------|
--------------------|--------------------|--------------------|

--------------------|--3-----------5-----|--5-----------------|
--3-----3-----3-----|--------------------|--------------8-----|
-----2-----2-----2--|-----4-----4-----4--|-----6-----6-----6--|
--0-----0-----0-----|--5-----5-----5-----|--7-----7-----7-----|
--------------------|--------------------|--------------------|
--------------------|--------------------|--------------------|

--2-----------0-----|--------------0--2--|--------------------|
--------------------|--3-----------------|--5-----------7-----|
-----2-----2-----2--|-----2-----2-----2--|-----4-----4-----4--|
--0-----0-----0-----|--0-----0-----0-----|--5-----5-----5-----|
--------------------|--------------------|--------------------|
--------------------|--------------------|--------------------|

--------------------|---------------|--10------------|--10--------9---7-|
--8-----7-----5-----|--3------------|----------------|------------------|
-----6-----6-----6--|---------------|----------------|------------------|
--7-----7-----7-----|--0------------|----------------|------------------|
--------------------|---------------|----------------|--0---------------|
--------------------|---------------|----------------|------------------|

------------------|-------10---------|----------------|-----------------|
--10--------8---7-|--8-------------8-|--7--------8----|--10-------------|
------------------|------------------|----------------|------------9----|
------------------|--0---------------|----------------|-----------------|
------------------|------------------|----------------|--0--------------|
------------------|------------------|----------------|-----------------|

----------------|---------------|--10------------|--10--------9---7-|
------8----7----|--3------------|----------------|------------------|
----------------|---------------|----------------|------------------|
----------------|--0------------|----------------|------------------|
----------------|---------------|----------------|--0---------------|
----------------|---------------|----------------|------------------|

------------------|-------10---------|----------------|----------------|
--10--------8---7-|--8-------------8-|--7--------8----|--10------------|
------------------|------------------|----------------|----------------|
------------------|--0---------------|----------------|----------------|
------------------|------------------|----------------|--0-------------|
------------------|------------------|----------------|----------------|

-----------------||--5-----------------|--------------------|
------3----3-----||--------------------|--------------------|
----------------*||-----2-----2-----2--|-----2-----2-----2--|
----------------*||--0-----0-----0-----|--0-----0-----0-----|
-----------------||--------------------|--------------------|
-----------------||--------------------|--------------------|

--------------------|--5-----5-----7-----|--5-----------------|
--------------------|--------------------|--------------------|
-----0-----0-----0--|-----0-----0-----0--|-----2-----2-----2--|
--2-----2-----2-----|--2-----2-----------|--0-----0-----0-----|
--------------------|--------------7-----|--------------------|
--------------------|--------------------|--------------------|

------------10---------|--9--------10--------|--5--------3--------|
-----10-----10-----10--|-----8-----8------8--|--------------------|
--7------7------7------|--9-----9------9-----|-----0-----0-----0--|
-----------------------|---------------------|--2-----2-----2-----|
-----------------------|---------------------|--------------------|
-----------------------|---------------------|--------------------|

--3--------5--------|--2--------5--------|--5--------7--------|
--------------------|--------------------|--------------------|
-----2-----2-----2--|-----2-----2-----2--|-----0-----0-----0--|
--0-----0-----0-----|--0-----0-----0-----|--2-----------------|
--------------------|--------------------|--------7-----7-----|
--------------------|--------------------|--------------------|

--5--------3--------|--3--------5--------|--2-----------2--3--|
--------------------|--------------------|--------------------|
-----0-----0-----0--|-----2-----2-----2--|-----2-----2-----2--|
--2-----2-----2-----|--0-----0-----0-----|--0-----0-----0-----|
--------------------|--------------------|--------------------|
--------------------|--------------------|--------------------|

--3-----------------|--------------------|--3-----5-----------|
--------------------|--------3-----3-----|--------------------|
-----0-----0-----0--|-----0-----0-----0--|-----4-----4-----4--|
--2-----2-----2-----|--2-----2-----2-----|--5-----5-----5-----|
--------------------|--------------------|--------------------|
--------------------|--------------------|--------------------|

--5-----------------|--------------------|--------------------|
--------------8-----|--5-----------3-----|--3-----3-----3-----|
-----6-----6-----6--|-----2-----2-----2--|-----2-----2-----2--|
--7-----7-----7-----|--0-----0-----0-----|--0-----0-----0-----|
--------------------|--------------------|--------------------|
--------------------|--------------------|--------------------|

--3-----5-----------|--5-----------------|--------------------|
--------------------|--------------8-----|--5-----------3-----|
-----4-----4-----4--|-----6-----6-----6--|-----2-----2-----2--|
--5-----5-----5-----|--7-----7-----7-----|--0-----0-----0-----|
--------------------|--------------------|--------------------|
--------------------|--------------------|--------------------|

--------------------|--3-----------5-----|--5-----------------|
--3-----3-----3-----|--------------------|--------------8-----|
-----2-----2-----2--|-----4-----4-----4--|-----6-----6-----6--|
--0-----0-----0-----|--5-----5-----5-----|--7-----7-----7-----|
--------------------|--------------------|--------------------|
--------------------|--------------------|--------------------|

--2-----------0-----|--------------0--2--|--------------------|
--------------------|--3-----------------|--5-----------7-----|
-----2-----2-----2--|-----2-----2-----2--|-----4-----4-----4--|
--0-----0-----0-----|--0-----0-----0-----|--5-----5-----5-----|
--------------------|--------------------|--------------------|
--------------------|--------------------|--------------------|

--------------------|---------------|--------------|----------------|
--8-----7-----5-----|--3------------|--------------|-----------5----|
-----6-----6-----6--|--2------------|--------------|----------------|
--7-----7-----7-----|--0------------|--------------|----------------|
--------------------|---------------|--------------|--0-------------|
--------------------|---------------|--------------|----------------|

----------------|---------------|--------------|----------------|
--3--------2----|--3------------|--------------|-----------5----|
----------------|---------------|--------------|----------------|
----------------|--0------------|--------------|----------------|
----------------|---------------|--------------|--0-------------|
----------------|---------------|--------------|----------------|

---------------|---------------|---------------|---------------|--------------|
--3------------|--3------------|---------------|---------------|--------------|
---------------|---------------|---------------|---------------|--------------|
---------------|---------------|---------------|---------------|--------------|
---------------|--5------------|----------5/---|--0------------|--------------|
---------------|---------------|---------------|---------------|--------------|

---------------|---------------|---------------|--------------|
---------------|---------------|---------------|--------------|
---------------|---------------|---------------|--------------|
---------------|---------------|---------------|--------------|
--5------------|----------5/---|--0------------|--------------|
---------------|---------------|---------------|--------------|

|----------------|--10------------|--10--------9---7-|------------------|
|----------------|----------------|------------------|--10--------8---7-|
|*--7------------|----------------|------------------|------------------|
|*--0------------|----------------|------------------|------------------|
|----------------|----------------|--0---------------|------------------|
|----------------|----------------|------------------|------------------|

-------10---------|----------------|-----------------|----------------|
--8-------------8-|--7--------8----|--10-------------|------8----7----|
------------------|----------------|------------9----|----------------|
--0---------------|----------------|-----------------|----------------|
------------------|----------------|--0--------------|----------------|
------------------|----------------|-----------------|----------------|

---------------|--10------------|--10--------9---7-|------------------|
---------------|----------------|------------------|--10--------8---7-|
--7------------|----------------|------------------|------------------|
--0------------|----------------|------------------|------------------|
---------------|----------------|--0---------------|------------------|
---------------|----------------|------------------|------------------|

-------10---------|----------------|-----------------|-----------------||
--8-------------8-|--7--------8----|--10-------------|------8----7-----||
------------------|----------------|------------9----|----------------*||
--0---------------|----------------|-----------------|----------------*||
------------------|----------------|--0--------------|-----------------||
------------------|----------------|-----------------|-----------------||
comments
print report bad tab
I want to post or [tab]
guest
You may want to rate the tab now too:
select rating
Please do not post tabs as comments. Select "correction" instead!