Oops, an error
Loading. Please wait.

18 Candles The Early Years Bass Tab

1,724 views 1 this week
7 commentsread comments
1 2 3 4 5
excellent!
x 1
add to favorites launch autoscroll
font size
0
reset
Autoscroll
+/-
esc
set tempo
stop
Contributor
WARNING: You are trying to view
                                    content from Ultimate-Guitar.com
                                    in an unauthorized application,
                                    which is prohibited.

                                    Please use an official Ultimate
                                    Guitar Tabs application for iPhone,
                                    iPad or Android to access legitimate
                                    chords, guitar, bass, and drum tabs
                                    from Ultimate-Guitar.com database.

                                    Type "ultimate guitar tabs" in Apple
                                    App Store's or Android Market's
                                    search to find the application.
++++++++++++++++++++++++++++++++++++++++++++
| Silverstein- 18 Candles: The Early Years |
++++++++++++++++++++++++++++++++++++++++++++

Bass Tab, Album: "18 Candles: The Early Years" (2006)
Tabbed By: RaiLeff
E-Mail: Underground__Dora@Hotmail.Com

Tuning: EADG and DADG

Keys:

| x: Mute
| ~: Let Ring
| /: Slide Up
| \: Slide Down
| h: Hammer On
| p: Pull Off

Tracks:

1.  Waiting Four Years
2.  Wish I Could Forget You
3.  Friends In Fallriver
4.  Summer's Stellar Gaze
5.  My Consolation
6.  Forever And A Day
7.  Red Light Pledge
8.  Dawn Of The Fall
9.  Wish I Could Forget You
10. Bleeds No More
11. Last Days Of Summer
12. Waiting Four Years
13. My Heroine (Acoustic)
14. Call It Karma (Acoustic)
15. Discovering The Waterfront (Live)
16. Defend You (Live)
17. Bleeds No More (Live Feat. Wil from Aiden)
18. Smile In Your Sleep (A Crude Mechanical Remix)

_______________________________________________

1. Waiting Four Years

Tuning: EADG

Verse
"To make you stay.."
1.
G|-------------------------------------|
D|-------------------------------------|
A|-55555555-44444444/77777777-99999999-|--x3
E|-------------------------------------|

"I asked to see you.."
2.
G|------------------------------------|
D|------------------------------------|
A|-55555555-44444444------------------|
E|-------------------33333333-3333333-|

Chorus
"Everyday!!!"
3.
G|---------------------------------------------------------------------|
D|---------------------------------------------------------------------|
A|-5-5-55-4-444-444------------------2-2-22-0-000-000------------------|
E|------------------3-3-33-3-333-333------------------3-3-33-3-333-333-|

4.
G|------------------------------------------------------------------------|
D|------------------------------------------------------------------------|
A|-5-5-55-4-444-444------------------2-2-22-0-000-000---------------------|
E|------------------3-3-33-3-333-333------------------xx-3-xx-3-xx-3-xx-3-|

"And Im waiting four years..."
5.
G|---------------------------------------------------------------------|
D|---------------------------------------------------------------------|
A|-5-5-55-4-444-444------------------2-2-22-0-000-000------------------|
E|------------------3-3-33-3-333-333------------------3-3-33-3-333-333-|

6.
G|------------------------------------------------------------------------|
D|------------------------------------------------------------------------|
A|-5-5-55-4-444-444------------------2-2-22-0-000-000---------------------|
E|------------------3-3-33-3-333-333------------------xx-3-xx-3-xx-3-xx-3-|

Verse
"Life has passed me by..."
7.
G|-------------------------------------------------------------------------|
D|-------------------------------------------------------------------------|
A|-22222422-22222222-------------------------------------------------------|--x2
E|-------------------33333333-33333333-22222222-22222222-00000000-00000000-|

Pre-Chorus
"More then I'll ever have.."
8.
G|---------------------------------------------------------------------|
D|---------------------------------------------------------------------|
A|-2-2-242-2222-242----------------------------------------------------|--x2
E|------------------3-3-353-3333-353-2-2-232-2222-232-0-0-000-0000-000-|

"And Im waiting four years..."
9.
G|---------------------------------------------------------------------|
D|---------------------------------------------------------------------|
A|-5-5-55-4-444-444------------------2-2-22-0-000-000------------------|
E|------------------3-3-33-3-333-333------------------3-3-33-3-333-333-|

"Waiting all this time..."
10.
G|------------------------------------------------------------------------|
D|------------------------------------------------------------------------|
A|-5-5-55-4-444-444------------------2-2-22-0-000-000---------------------|
E|------------------3-3-33-3-333-333------------------xx-3-xx-3-xx-3-xx-3-|

Outro
11.
G|-----------------|
D|-----------------|
A|-5~--------------|
E|-----------------|

Bridge
"Can you see me?"
12.
G|----------------------------------|
D|----------------------------------|
A|-55x----55x----55x-44x-55x-44x----|
E|----------------------------------|

"Can you see me?"
13.
G|-------------------------------------|
D|-------------------------------------|
A|-55555555-44444444-55555555-44444444-|--x2
E|-------------------------------------|

"Everyday.."
14.
G|----------------------------------|
D|----------------------------------|
A|-x-x-555-444444-77777777-99999999-|--x4
E|----------------------------------|

"Everyday.."
16.
G|------------------------------------|
D|------------------------------------|
A|-x-x-x-555-444444-------------------|
E|------------------00000000-22222222-|

17.
G|-----------------|
D|-----------------|
A|-5~--------------|
E|-----------------|

Lyrics:

I gave you everything,
but it just wasn't enough to make you stay.
You said you'd give me time and space again.
I asked to see you everyday.

Now I'm waiting four years
just to feel your touch,
waiting four whole years to say how much I care.
The flowers I gave you, died, lost and been thrown away,
just like me.

Life has passed me by,
reflected in my eye.
Never again will I have
you beside me, you to be there.
The years behind cost
more than I'll ever have.

Now I'm waiting four years just to hear your voice,
waiting four whole years to lie right by your side.
I waited all this time, just to see your smile.
I waited all this time to say how much I care.

Can you see me waiting for you everyday?

_____________________________________________

2. Wish I Could Forget You

Tuning: EADG

Intro
1.
G|----------------|
D|----------------|
A|-3~--3~--2~--2~-|
E|----------------|

"I know they will miss!"
2.
G|-------------------------|
D|-------------------------|
A|-333333-333333-222222-2x-|--x4
E|-------------------------|

3.
G|---------------------------------|
D|---------------------------------|
A|-33333333-22222222---------------|--x4
E|---------------------------------|

Chorus
"Say its gold, say its fine..."
4.
G|-------------------------------------------|
D|------------------------------------2x-----|
A|-3333-2222-5555-2222-3333-2222-5555----222-|--x4
E|-------------------------------------------|

Outro
5.
G|---------------------------------------------------------|
D|---------------------------------------------------------|
A|-333333-222222-555555-222222-333333-222222-555555-777777-|--x2
E|---------------------------------------------------------|

6.
G|----------------------------------------------------------|
D|--------------------------------------------------2x------|
A|-333333-222222-555555-222222-333333-222222-555555----2222-|--x2
E|----------------------------------------------------------|

Chorus
"Say its gold, say its fine..."
7.
G|-------------------------------------------|
D|------------------------------------2x-----|
A|-3333-2222-5555-2222-3333-2222-5555----222-|--x2
E|-------------------------------------------|

8.
G|-----------------------------|
D|-----------------------------|
A|----------------------555555-|
E|-555555-555555-333333--------|

9.
G|--------------|
D|--------------|
A|--------------|
E|-5~-----------|

Lyrics:

You won't repeat this for the rest of the crowd.
I know they will miss but you'll still feel proud.
but you'll still feel proud.
Say it's gold, say it's fine.
The secrets out that you're mine.
Say it's gold, say it's fine.
The secrets out that you're mine.
YEAH!
THAT YOU'RE MINE!
Say it's gold, say it's fine.
The secrets out that you're mine.
The television radiates as the clock ticks on and on and on and on and on.
It's getting too late and it's time to move on.
YEAH!

________________________________________________

3. Friends In Fallriver

Tuning: EADG

Intro
1.
G|------------------------------------------------------------------------------------|
D|------------------------------------------------------------------------------------|
A|-2~---------22222222-44444444-00000000-22222222-22222222-44444444-00000000-22222222-|
E|--------------------------------------------------------------------------Let's-Go!-|

2.
G|---------------------------------|
D|---------------------------------|
A|-22x-00x-44x-00x-2-0-22x-00x-44x-|--x3
E|---------------------------------|

3.
G|---------------------------------|
D|---------------------------------|
A|-22x-00x-44x-00x-2-0-22x-00x-44~-|
E|---------------------------------|

Verse
"Your life..."
4.
G|-------------------------------------------------------------------------|
D|-------------------------------------------------------------------------|
A|-22222222-22222222-44444444-44444444-------------------00000000-00000000-|--x2
E|-------------------------------------44444444-44444444-------------------|

Chorus
"What did I do?"
5.
G|-------------------------------------------------------------------------|
D|-------------------------------------------------------------------------|
A|-22x-00x-44x-00x-2-0-22x-00x-44x---------22x-00x-44x-00x-2-0-22x-00x-44x-|
E|-------------------------------------------------------------------------|

6.
G|-------------------------------------------------------------------------|
D|-------------------------------------------------------------------------|
A|-22x-00x-44x-00x-2-0-22x-00x-44x---------22x-00x-44x-00x-2-0-22x-00x-44~-|
E|---------------------------------000-000---------------------------------|

Verse
"Im heading the wrong way home..."
7.
G|-------------------------------------------------------------------------|
D|-------------------------------------------------------------------------|
A|-22222222-00000000-44444444-22222222-22222222-00000000-44444444-22222222-|--x2
E|-------------------------------------------------------------------------|

Chorus
"What did I do?"
8.
G|-------------------------------------------------------------------------|
D|-------------------------------------------------------------------------|
A|-22x-00x-44x-00x-2-0-22x-00x-44x---------22x-00x-44x-00x-2-0-22x-00x-44x-|
E|-------------------------------------------------------------------------|

9.
G|-------------------------------------------------------------------------|
D|-------------------------------------------------------------------------|
A|-22x-00x-44x-00x-2-0-22x-00x-44x---------22x-00x-44x-00x-2-0-22x-00x-----|
E|---------------------------------000-000-----------------------------00~-|

Bridge
"I dont know where to begin..."
10.
G|-------------------------------------------------------------------------|
D|-------------------------------------------------------22222422-11111211-|
A|-44444444-44444444-------------------------------------------------------|--x2
E|-------------------44444444-44444444-55544455-54445555-------------------|

11.
G|-------------------------------------------------------------------------|
D|---------------111-22222222-22222222-------------------------------------|
A|-44444444-44444----------------------------------------------------------|
E|-------------------------------------55555555-55555555-44444444-44444444-|

12.
G|-----------------------------------------------------------------------------------|
D|-------------------------------------------------------2~-------1~-----------------|
A|-44444444-44444444-------------------------------------------------------4~--------|
E|-------------------44444444-44444444-55544455-54445555-----------------------------|

Lyrics:

Let's go!

Your life lives half a nation away,
my heart hurts so.
I believe letting you go was
the biggest mistake of my life.

What did I do?
Alone and confused.
What can I say?
What can I do?

I'm heading the wrong way home.
Knowing alone is alone.
It's just too difficult to be
just me instead of we.

What did I do?
Alone and confused.
What can I say?
Nothing.

I don't know where to begin 'cause you left me for him.
I don't know where to begin since you left me for him.
I don't want to start again, and I can't be your friend.
I don't know where to begin now you left me for him.

__________________________________________

4. Summer's Stellar Gaze

Tuning: Drop D (DADG)

Intro
1.
G|--------------------------------|
D|--------------------------------|
A|-4~--------4~-5~-4~-5~-4~-5~-4~-|
D|--------------------------------|

Verse

2.
G|-----------------------------------------|
D|-----------------------------------------|
A|-445-445-445-445-445-4-------------------|--x3
D|-----------------------5~-4~-5~-4~-4h5p4-|


3.
G|---------------------------------|
D|---------------------------------|
A|-445-445-445-445-445-4-----------|
D|-----------------------5~-4~-0~--|

Chorus

4.
G|--------------------------------------------------|
D|--------------------------------------------------|
A|-------------------0~----------------------0~-----|
D|-5~-4~-0~----5~-4~-------5~-4~-0~----5~-4~--------|

5.
G|--------------------------------------------------|
D|--------------------------------------------------|
A|-------------------0~----------------------0~-----|
D|-5~-4~-0~----5~-4~-------555-444-0~--5~-4~--------|

Mute for a long time

"Summer Stellar Gaze..." 1:07
6.
G|-----------------------------------------------------------------------------|
D|-----------------------------------------------------------------------------|
A|-----------------------------------------------------------------------------|
D|-555-4-4555-4-45544-555-4-4555-4-45544-555-4-4555-4-45544-555-4-4555-4-45544-|

7.
G|---------------------------------------------------------------------|
D|---------------------------------------------------------------------|
A|---------------------------------------------------------------------|
D|-555-4-4555-4-45544-555-4-4555-4-45544-555-4-4555-4-45544-555-4-4-2~-|

Chorus

8.
G|--------------------------------------------------|
D|--------------------------------------------------|
A|-------------------0~----------------------0~-----|
D|-5~-4~-0~----5~-4~-------5~-4~-0~----5~-4~--------|

9.
G|--------------------------------------------------|
D|--------------------------------------------------|
A|-------------------0~------------------------0~---|
D|-5~-4~-0~----5~-4~-------555-444-0~--555-444------|

Verse

10.
G|-----------------------------------------|
D|-----------------------------------------|
A|-445-445-445-445-445-4-------------------|--x4
D|-----------------------5~-4~-5~-4~-4h5p4-|

11.
G|-----------------------------------------------------------------------------|
D|-----------------------------------------------------------------------------|
A|-----------------------------------------------------------------------------|
D|-555-4-4555-4-4h5p4-555-4-4555-4-4h5p4-555-4-4555-4-4h5p4-555-4-4555-4-4h5p4-|

Play 11 for a long time
And finish with

12.
G|---------------------|
D|---------------------|
A|---------------------|
D|-555-4x-2~-00x-00-0x-|

Lyrics

As time passes us by and hurries us with pride, we'll have the past for the rest of our lives
Don't lose touch with reality, compensate for life's stupidity
I wait for it. You know that it's true. You cannot lose.
A summer can't be forgotten from the words that you speak.
Summer's stellar gaze. I wait for it. You know that it's true.
You cannot lose. You're one of the few. Summer's Stellar Gaze

____________________________________________

5. My Consolation

Tuning: EADG

Intro
1.
G|------------------------------------------------------------|
D|-------2~--------------------2~----4~----6~----7~-----------|
A|------------------------------------------------------------|
E|-5~----------0~----5~------------------------------------5~-|

2.
G|------------|
D|------------|
A|-7~---7x----|
E|------------|

Verse
"You left me.."
3.
G|-------------------------------------------------|
D|---------------------------------4444-6----------|
A|-7-77777-77777-77777-77777-77777-----------------|
E|---------------------------------------44--------|

4.
G|-------------------------------------------------|
D|------------4444-6666------------4444-6-66-------|
A|-------------------------------------------------|
E|-5-55555-555----------5-55555-555----------------|

5.
G|-------------------------------------------------|
D|------------4444-6666------------4444-6----------|
A|-7-77777-777----------7-77777-777----------------|
E|----------------------------------------44-------|

6.
G|-------------------------------------------------|
D|------------4444-6666------------4444-6-66-------|
A|-------------------------------------------------|
E|-5-55555-555----------5-55555-555----------------|

7.
G|-------------------------------------------------|
D|------------4444-6666------------4444-6----------|
A|-7-77777-777----------7-77777-777----------------|
E|----------------------------------------44-------|

8.
G|-------------------------------------------------|
D|------------4444-6666------------4444-6-66-------|
A|-------------------------------------------------|
E|-5-55555-555----------5-55555-555----------------|

Pre-Chorus
9.
G|-----------------------------------------|
D|-----------------------------------------|
A|-44444444-22222222-7777777---------------|
E|---------------------------555-444-------|

10.
G|-----------------------------------------|
D|-----------------------------------------|
A|-44444444-22222222-----------------------|
E|-------------------5555-5555-5555-5555---|

Chorus
11.
G|---------------------------------------------------------------|
D|---------------------------------------------------------------|
A|-444-555-------444-555---------------444-555------4444-5555----|
E|---------555x----------555555-555555---------555x-----------5x-|

Verse
12.
G|-------------------------------------------------|
D|---------------------------------4444-6----------|
A|-7-77777-77777-77777-77777-77777-----------------|
E|---------------------------------------44--------|

13.
G|-------------------------------------------------|
D|------------4444-6666------------4444-6-66-------|
A|-------------------------------------------------|
E|-5-55555-555----------5-55555-555----------------|

14.
G|-------------------------------------------------|
D|------------4444-6666------------4444-6----------|
A|-7-77777-777----------7-77777-777----------------|
E|----------------------------------------44-------|

15.
G|-------------------------------------------------|
D|------------4444-6666------------4444-6-66-------|
A|-------------------------------------------------|
E|-5-55555-555----------5-55555-555----------------|

Pre-Chorus
16.
G|-----------------------------------------|
D|-----------------------------------------|
A|-44444444-22222222-7777777---------------|
E|---------------------------555-444-------|

17.
G|-----------------------------------------|
D|-----------------------------------------|
A|-44444444-22222222-----------------------|
E|-------------------5555-5555-5555-5555---|

18.
"I wont forget..."
G|---------------------------------------------------------|
D|---------------------------------------------------------|
A|---------------000000-222222-000000-000000---------------|--x4
E|-444444-444444-----------------------------444444-222222-|

Chorus
19.
G|--------------------------------------------------------------------------|
D|--------------------------------------------------------------------------|
A|-444-555-------444-555---------------444-555------4444-5555---------------|
E|---------555x----------555555-555555---------555x-----------555555-555555-|

20.
G|-------4~----2~----1~----|
D|-------------------------|
A|-0~----------------------|
E|-------------------------|

Lyrics

You left me, now you come back to me saying it's changed
and we're not the same people we once were.
And you beg to be back with me,
I can't see anything but you.
Every night, I see you there.
Everyday, I hate you and everything we once were.
You keep saying it's changed and we're not the same.
And you beg to be back with me, now I can't see anything.
I won't forget everything that you put us through.
Every night, I see you there.
Everyday, I hate you.
Crying can't carry you back to me

________________________________________________

6. Forever And A Day

Tuning: EADG

Intro.
1.
G|---------------------------------------------|
D|---------------------------------------------|
A|-0-000-0-00-2-222-2-22-0-000-0-00------------|--x2
E|----------------------------------3-333-3-33-|

Verse
"I thought we'de be.."
2.
G|----------------------------------------------|
D|------------------4-2-0-----------------------|
A|-0-000-0-00-2-222-------0-000-0-00------------|--x2
E|-----------------------------------3-333-3-33-|

Chorus
3.
G|-------------------------------------------------|
D|-------------------------------------------------|
A|-0000000x--2222222x--000000-000000---------------|--x3
E|-----------------------------------333333-333333-|

4.
G|--------------------------------------------------------|
D|---------4-2-0--------4-2-0-----------------------------|
A|-0000000-------222222-------000000-000000---------------|
E|------------------------------------------333333-333333-|

"Think..."
5.
G|---------------------------------------------|
D|---------------------------------------------|
A|-0-000-0-00-2-222-2-22-0-000-0-00------------|
E|----------------------------------3-333-3-33-|

6.
G|----------------------------------------------|
D|------------------4-2-0-----------------------|
A|-0-000-0-00-2-222-------0-000-0-00------------|
E|-----------------------------------3-333-3-33-|

7.
G|---------------------------------------------|
D|---------------------------------------------|
A|-0-000-0-00-2-222-2-22-0-000-0-00------------|
E|----------------------------------3-333-3-33-|

8.
G|----------------------------------------------|
D|------------------4-2-0-----------------------|
A|-0-000-0-00-2-222-------0-000-0-00------------|
E|-----------------------------------3-333-3-33-|

Chorus
9.
G|-------------------------------------------------|
D|-------------------------------------------------|
A|-0000000x--2222222x--000000-000000---------------|--x3
E|-----------------------------------333333-333333-|

10.
G|--------------------------------------------------------|
D|---------4-2-0--------4-2-0-----------------------------|
A|-0000000-------222222-------000000-000000---------------|
E|------------------------------------------333333-333333-|

11.
G|--------------------------|
D|--------------------------|
A|-0~------2~------0~-------|
E|-----------------------3~-|

12.
G|--------------------------------------|
D|-----------------------5~-5-7-5-4~-0~-|
A|-0~------2~------3~-------------------|--x2
E|--------------------------------------|

"Just how good I was.."
13.
G|---------------------------------------------------------|
D|---------------------------------------------------------|
A|-000000-000000-000000-000000-333333-333333-333333-333333-|--x2
E|---------------------------------------------------------|

"Together! Forever!!.."
14.
G|-------------------------------------------------|
D|-------------------------------------------------|
A|-000x-000x-000x-000x-333333-333333-333333-333333-|
E|-------------------------------------------------|

15.
G|---------------------------------------------------------|
D|---------------------------------------------------------|
A|-000000-000000-000000-000000-333333-333333-333333-333333-|
E|---------------------------------------------------------|

Here's where poem starts..
16.
G|----------------------------------------------------------------------------------------------------------------|
D|------------------------------------------------------------------------------------555555-555555-444444-444444-|
A|-000000-000000-000000-000000-222222-222222-222222-2x----333333-333333-333333-333333-----------------------------|
E|----------------------------------------------------------------------------------------------------------------|

Lyrics


I thought we'd be together forever.
But it seems I was wrong and everything's fallen apart.
Think of what I've done for you.
Think of all that we've been through.
I hope every time he breaks your heart
you think of me and how I was to you.
Everything's fallen apart.
One day you'll see just how good I was.
And I thought that we'd be together forever.

________________________________________________

7. Red Light Pledge

Tuning: EADG

Intro
1.
G|----------------------------2-0---|
D|--------------------------------4-|
A|-----------------3~------3~-------|--x2
E|-0~------0~-----------------------|

Verse
"The ending's..."
2.
G|----------------------------2-0---|
D|--------------------------------4-|
A|-----------------3~------3~-------|
E|-0~------0~-----------------------|

"Come back to haunt you..."
3.
G|------------------------------------|
D|------------------------------------|
A|-----------------3~------3~------3x-|
E|-0~------0~-------------------------|

Chorus
"I made a mistake..."
4.
G|--------------------------------------------------------------|
D|-222222-0000-xx----------------222222-0000-xx-----------------|
A|----------------3333-xx-555555-----------------3333-xx-555555-|
E|--------------------------------------------------------------|

"I wanted to tell you..."
5.
G|-------------------------------------------------------------------|
D|--------222--------222-------------------222-----222---------------|
A|-----------------------333333-555555-----------------333333-555555-|
E|-000000-----000000-------------------000-----000-------------------|

Chorus Cont
"Promise me you will be there..."
6.
G|---------------------------------------------------------|
D|---------------222222-222222-----------------------------|
A|-222222-555555---------------222222-555555-333333-333333-|
E|---------------------------------------------------------|

7.
G|----------------------------------------------|
D|---------------222222-222222------------------|
A|-222222-555555---------------222222-555555-3~-|
E|----------------------------------------------|

Chorus
"I made a mistake..."
8.
G|--------------------------------------------------------------|
D|-222222-0000-xx----------------222222-0000-xx-----------------|
A|----------------3333-xx-555555-----------------3333-xx-555555-|
E|--------------------------------------------------------------|

"I wanted to tell you..."
9.
G|-------------------------------------------------------------------|
D|--------222--------222-------------------222-----222---------------|
A|-----------------------333333-555555-----------------333333-555555-|
E|-000000-----000000-------------------000-----000-------------------|

Outro
10.
G|----|
D|----|
A|----|
E|-0~-|

Bridge
11.
G|----------------------------------|
D|----------------------------------|
A|----------------------------------|
E|--3~------3~------3~------3~------|

Verse
"I wanted to tell you..."
12.
G|--------------------------------------------------How-do-I------|
D|--------------------------------------------------explain-------|
A|--2~------2~------0~------0~---------------------everything?----|
E|----------------------------------3~------3~------333333-333333-|

Chorus
"Promise me you will be there..."
13.
G|-----------------------------------------------------------|
D|-----------------------------------------------------------| Play for
A|-222222-000000----------------222222-000000----------------| alot of times
E|---------------333333-3333-xx---------------333333-3333-xx-|

14.
G|--------------------------------------------------------------------------|
D|--------------------------------------------------------------------------| Play for
A|-22222x----00000x---------------------22222x----00000x--------------------| alot of
E|---------------------3333333-3333333----------------------3333333-3333333-| times

"Ill wait for you..."
15.
G|-----------------------------------------------------------------|
D|-----------------------------------------------------------------| Play for alot
A|-2222222-0000000-----------------2222222-0000000-----------------| of times
E|-----------------3333333-3333333-----------------3333333-3333333-|

Finish with:
16.
G|-----|
D|-----|
A|-----|
E|-3~--|

Lyrics:

The ending's the same,
past mistakes that you made,
come back to haunt you, you.

I made a mistake, I wish I could take,
back everything that I did.
I wanted to tell you, I really did.
But how do I explain this?

Promise me you will be there
Until the red light will change.
I would wait forever.
Promise me you will stay here
Until the darkness will fade,
I'd wait for you, you.

A mistake, wish I could take,
back everything that I did.
I wanted to tell you, I really did.
But how do I explain?

I wanted to tell you, what really happened,
but how do I explain this? How do I explain everything?

I'm the same and I'm all on my own, away.
Wait for you.
I'm the same and I'm all on my own, by myself.
Wait for you.
I'd wait for you... for you
I'd wait for you.

__________________________________________________

8. Dawn Of The Fall

Tuning: EADG

Intro.
1.
G|-------------------------------------|
D|-------------------------------------|
A|-5~------------------2~---333333333x-|
E|-------------------------------------|

Verse
"It was yesterday you told me you loved me.."
2.
G|----------------------------------|
D|-----------------2222222-55-55445-|
A|-5555555-4444444------------------|
E|----------------------------------|

3.
G|--------------------------|
D|--------------------------|
A|-555-4444444--------------|
E|-------------00-2-3333333-|

"But today I learned you found someone else.."
4.
G|----------------------------------|
D|-----------------2222222-55-55445-|
A|-5555555-4444444------------------|
E|----------------------------------|

"Was fake.."
5.
G|--------------------------|
D|--------------------------|
A|-555-4444444--------------|
E|-------------00-2-3333333-|

Chorus
"When I get back home I know that you'll be gone.." x2
6.
G|----------------------------------------------------------|
D|----------------------------------------------------------|
A|-5555x--4444x----------------5555x--4444x-----------------|
E|---------------0000x--3333x---------------0000x--33x--33x-|

Verse
"And today I found out that you.."
7.
G|----------------------------------|
D|-----------------2222222-55-55445-|
A|-5555555-4444444------------------|
E|----------------------------------|

8.
G|--------------------------|
D|--------------------------|
A|-555-4444444--------------|
E|-------------00-2-3333333-|

"A one bedroom apartment.."
9.
G|----------------------------------|
D|-----------------2222222-55-55445-|
A|-5555555-4444444------------------|
E|----------------------------------|

"First met.."
10.
G|--------------------------|
D|--------------------------|
A|-555-4444444--------------|
E|-------------00-2-3333333-|

Chorus
"When I get back home I know that you'll be gone.." x2
11.
G|----------------------------------------------------------|
D|----------------------------------------------------------|
A|-5555x--4444x----------------5555x--4444x-----------------|
E|---------------0000x--3333x---------------0000x--33x--33x-|

Now play verse

1:49
12.
G|----|
D|----|
A|-5~-|
E|----|

"You were there..
With someone else.."

"See my pain!!"  - For quite a few times
13.
G|-----------------------------------------|
D|-----------------------------------------|
A|-555555555-222222222---------------------|
E|---------------------333333333-333333333-|

Last Part 3:09
14.
G|-------------------------------------------------------|
D|-------------------------------------------------------|
A|--------------------------5x---------------------------|
E|-333333333333333333333333-----333333333333333333333333-|

15.
G|-----------------------------------------------------------|
D|---------------754--------------754------------------------|
A|--5-555-555-55-----5-555-555-55----------------------------|
E|-----------------------------------33333333333333333333333-|

16.
G|--------------------------------------------------|
D|--------------------------------------------------|
A|-------------------------222222222222222222222222-|
E|-333333333333333333333333-------------------------|

17.
G|--------------------------------------------------|
D|--------------------------------------------------|
A|-000000000000000000000000-------------------------|
E|-------------------------333333333333333333333333-|

18.
G|--------------------|
D|------------754-----|
A|-5~----5-55-----5~x-|
E|--------------------|

Lyrics:

It was yesterday you told me you loved me,
But today I learned you found someone else
and everything was fake.
When I get back home I know that you'll be gone.
And all the things I've given you are left behind; I'll put them in a box.
And today I found out you moved in with him.
A one-bedroom apartment down the road
from the place we first met.
When I get back home I know that you'll be gone.
With all the memories of me you had
locked here in this box.
And I'll start to think of everything we had.
I was always there for you
I asked for nothing in return I swear.
I'll believe,
you'll make you see.
You were there with someone else.
See my pain, I'll believe
you were there with him.
I don't want to see your face again, not like this.
I don't have to see you in this place.
I don't want to see your face again. (face again)
I will not be ashamed not now.
This time I won't be ashamed of it.
This time I won't make it change myself.
This time I will make myself believe.
My heart,
it won't break this time,
won't be left behind,
I won't be so shy; I won't let you win this time.

_______________________________________________________

9. Wish I Could Forget You

*See track 2

_______________________________________________________

10. Bleeds No More

Tuning: Drop D (DADG)

"MY HEART BLEEDS NO MORE!!!"

Intro
1.
G|-----------------------------------------------------------------------|
D|-----------------------------------------------------------------------|
A|----------3-333333-1-111111-1-0---0----------3-333333-1-111111-1-0---0-|--x2
D|-0-000000-----------------------5---0-000000-----------------------5---|

Verse
"Powerless I stand..."
2.
G|-------------------------------------------------------------------------|
D|-------------------------------------------------------------------------|
A|-------------------11111111-11111111-------------------------------------|
D|-00000000-00000000-------------------33333333-33333333-22222222-22222222-|

3.
G|-------------------------------------------------------------------------|
D|-------------------------------------------------------------------------|
A|-------------------11111111-11111111-------------------00000000-00000000-|
D|-00000000-00000000-------------------33333333-33333333-------------------|

Chorus
"My heart bleeds no more..."
4.
G|-----------------------------------------------------------------------|
D|-----------------------------------------------------------------------|
A|----------3-333333-1-111111-1-0---0----------3-333333-1-111111-1-0---0-|--x2
D|-0-000000-----------------------5---0-000000-----------------------5---|

Bridge
5.
G|-------------------------------------------------------------------------|
D|-------------------------------------------------------------------------|
A|-11111111-11111111-11111111-11111111-------------------------------------|
D|-------------------------------------00000000-00000000-00000000-00000000-|

6.
G|-------------------------------------------------------------------------|
D|-------------------------------------------------------------------------|
A|-11111111-11111111-11111111-11111111-33333333-33333333-00000000-00000000-|
D|-------------------------------------------------------------------------|

Chorus
"My heart bleeds no more..."
7.
G|-----------------------------------------------------------------------|
D|-----------------------------------------------------------------------|
A|----------3-333333-1-111111-1-0---0----------3-333333-1-111111-1-0---0-|--x2
D|-0-000000-----------------------5---0-000000-----------------------5---|

Outro
8.
G|-----|
D|-----|
A|-----|
D|-0~--|

"I wanted to..."
9.
G|------------------------------------------------------------|
D|------------------------------------------------------------|
A|--------------------1~--------1~--------0~--------0~--------|
D|-0~--------0~-----------------------------------------------|

"You are the worst thing that ever happened to me..."

Bridge
10.
G|-------------------------------------------------------------------------|
D|-------------------------------------------------------------------------|
A|-11111111-11111111-11111111-11111111-------------------------------------|
D|-------------------------------------00000000-00000000-00000000-00000000-|

11.
G|-------------------------------------------------------------------------|
D|-------------------------------------------------------------------------|
A|-11111111-11111111-11111111-11111111-33333333-33333333-00000000-00000000-|
D|-------------------------------------------------------------------------|

Chorus
"My heart bleeds no more..."
12.
G|-----------------------------------------------------------------------|
D|-----------------------------------------------------------------------|
A|----------3-333333-1-111111-1-0---0----------3-333333-1-111111-1-0---0-|--x2
D|-0-000000-----------------------5---0-000000-----------------------5---|

Outro
13.
G|-----|
D|-----|
A|-----|
D|-0~--|

Lyrics:

My heart bleeds no more;
now, it's been turned to stone.
Your stomach feels sick for someone else.
I've broken both my legs falling for you.
Drag me on the ground.

Powerless I stand, tarnished blade, cutting through, pushed into my vein.
Blood still stains my hands.
Sharpening my sense of pain outside

Killing everything off inside.
Make sense of everything you tried to hide,
hide from me.

I wanted to,
convince myself there's nothing else to do.
I wanted to.
Provide you with proof of what you put me through.
I wanted to.
Pretend that it was you.
"you're the worst thing that's ever happend to me"
"dieee"

___________________________________________________

11. Last Days Of Summer

Tuning: EADG

Intro
1.
G|----------------------------------------------------------|
D|----------------------------------------------------------|
A|-0~----0-0~-------------------0~----0-0~------------------|
E|---------------0~----0-0~-------------------0~----0-0~----|

Verse
"The bright light beams..."
2.
G|----------------------------------------------------------|
D|----------------------------------------------------------|
A|-0~----0-0~-------------------0~----0-0~------------------|
E|---------------0~----0-0~-------------------0~----0-0~----|

Pre-Chorus
"Or a broken heart..."
3.
G|----------------------------------------------------------|
D|-2~----2-2~---------------0~--2~----2-2~---------------0~-|
A|---------------3~----3-3~-------------------3~----3-3~----|--x2
E|----------------------------------------------------------|

Chorus
"I won't leave.."
4.
G|-----------------------------------------|
D|-----------2222-2222-----------2222-4444-|
A|-3333-5555-----------3333-5555-----------|
E|-----------------------------------------|

"I won't leave this way.."
5.
G|------------------------|
D|-----------2222-4444-5~-|
A|-3333-5555--------------|
E|------------------------|

Verse
"As my legs..."
6.
G|----------------------------------------------------------|
D|-2~----2-2~---------------0~--2~----2-2~---------------0~-|
A|---------------3~----3-3~-------------------3~----3-3~----|--x2
E|----------------------------------------------------------|

Chorus
"I won't leave.."
7.
G|-----------------------------------------|
D|-----------2222-2222-----------2222-4444-|
A|-3333-5555-----------3333-5555-----------|
E|-----------------------------------------|

"I won't leave this way.."
8.
G|------------------------|
D|-----------2222-4444-5~-|
A|-3333-5555--------------|
E|------------------------|

Bridge
"You! That I loved..."
9.
G|--------------------|
D|--------------------|
A|-3-3333-3-3333-3-33-|
E|--------------------|

10.
G|----------------------------------------|
D|-22222x----00000x-----------------------|
A|---------------------3-3333-3-3333-3-33-|--x2
E|----------------------------------------|

11.
G|-----------------------------------------------------------|
D|-22222x----00000x------------------------------------------|
A|---------------------3-3333-3-3333-3-33-3-3333-3-3333-3-33-|
E|-----------------------------------------------------------|

12.
G|-------------------------------------------|
D|-------------------------------------------|
A|----------------------33x----33x----55x----|--x6
E|-00x----00x----00x-------------------------|

13.
G|--------------------------------|
D|--------------------------------|
A|-------------------3~-33-3~-3-3-|--x4
E|-00000000-00000000--------------|

14.
G|-------------------------------------------------------------------------|
D|-22222222-22222222-------------------22222222-22222222-------------------|
A|-------------------33333333-33335555-------------------33333333-33335555-|--x2
E|-------------------------------------------------------------------------|

15.
G|----------------------------------------------------------------------------|
D|-22222222-22222222-------------------22222222-22222222----------------------|
A|-------------------33333333-33335555-------------------3-333-3~-3-333-3~----|
E|-------------------------------------------------------------------------0~-|

Lyrics:

The bright light beams From her eyes
Like broken glass. Or a broken heart,
Who would have guessed?
You'd leave me here.
Beneath my eyes I feel the tears, I hold back.

I won't leave this way again.

As my legs They start to shake,
I feel nothing. I wanted you, (I wanted you!)
I needed you, But you weren't there for me this time. (There for me!)

You that I loved! That I needed!
You weren't there.Not this time! You!

What can I do?! I was supposed to love you!
What can I say?!

I won't leave, What can I do?!
I was supposed to help you!
I cannot feel you!
Last breath I feel! Warm air intake!
Last summer's day! Last one I take!
For you!

I won't leave! Leave this way!
I won't leave Lost it all!
All for you! I won't leave.
When the shadows beam! Misery remains!
I won't leave this time.

__________________________________________________________

12. Waiting Four Years

* See track 1

__________________________________________________________

13. My Heroine (Acoustic)

No Bass :(

__________________________________________________________

14. Call It Karma (Acoustic)

No Bass :(

__________________________________________________________

15. Discovering The Waterfront (Live)

Tuning: EADG

Intro
1.
G|-----------------------------------|
D|-----------------------------------|
A|-------------2~----0~--------------|
E|-3~----3~----------------3~--------|

Verse
"I will promise..."
2.
G|--------------------------------------------------|
D|--------------------------------------------------|
A|-2~----0~----------------2~----0~-----------------|--x2
E|-------------3~----3~----------------3~-----3~----|

Pre-Chorus
3.
G|-----------------------------------------------|
D|-----------------------------------------------|
A|-----------------------------------------------|
E|-0~----0~----0~----0~----3~----3~----3~--------|

Chorus
"I wont forget you..."
4.
G|---------------------------------------------------------|
D|--------00000--22222----------------00000--22222---------|
A|-22222-----------------------22222-----------------------|--x2
E|----------------------33333-----------------------33333--|

Verse
5.
G|--------------------------------------------------|
D|--------------------------------------------------|
A|-2~----0~----------------2~----0~-----------------|--x2
E|-------------3~----3~----------------3~-----3~----|

Pre-Chorus
6.
G|-----------------------------------------------|
D|-----------------------------------------------|
A|-----------------------------------------------|
E|-0~----0~----0~----0~----3~----3~----3~--------|

Chorus
"I wont forget you..."
7.
G|---------------------------------------------------------|
D|--------00000--22222----------------00000--22222---------|
A|-22222-----------------------22222-----------------------|
E|----------------------33333-----------------------33333--|

8.
G|---------------------------------------------------------|
D|--------00000--22222----------------00000--22222--22222--|
A|-22222-----------------------22222-----------------------|
E|----------------------33333------------------------------|

Bridge
9.
G|---------------------------------------------------------|
D|---------------------------------------------------------| Play until
A|-----------------------------2-2-2--2-2-2--5-5-5--5-5-5--| 3:02
E|-3-3-3--3-3-3--5-5-5--5-5-5------------------------------|

10.
G|---------------------------------------------------------|
D|---------------------------------------------------------|
A|-----------------------------2~-----2~-----5~-----5~-----|
E|-3~-----3~-----5~-----5~---------------------------------|

Chorus
"I wont forget you..."
11.
G|---------------------------------------------------------|
D|--------00000--22222----------------00000--22222---------|
A|-22222-----------------------22222-----------------------|--x3
E|----------------------33333-----------------------33333--|

12.
G|---------------------------------------------------------|
D|--------00000--22222----------------00000--2~------------|
A|-22222-----------------------22222-----------------------|
E|----------------------33333------------------------------|

Lyrics:

I will promise myself I won't care
distracting myself from your stare
and I've seen this mistake once before
with your games I will never fall for
I've hung up my guns
I won't kill again

I won't forget you (I won't forget you)
I'm not gonna let you win (I'm not gonna...)
but I'm tired of lying
tired of fighting you
and it's not gonna change

You ask for my heart
you know that I'm down
but not the way you lie to me,
you tear it all apart and beg for me to stay
I've sailed off to sea (sailed off to sea),
I'm not coming back

Counting down Make that sound
And you know it makes no sense
Counting down Till you mess around
And I know you can't ever change
When I'm trembling, Thrown overboard
And I'm ready to relive the past
Counting down Make that sound Break the silence

Pretend it's not forever,
I'll pull myself together
I'll say that I'll forget her,
I'll breathe.
And I'll say she never hurt me,
And look at it as learning,
And laugh about the good and the bad.
Because I won't live forever
We don't belong together,
I know I'll feel better,
One day when I can make it through.

_____________________________________________

16. Defend You (Live)

Tuning: EADG

Verse
1.
G|----------------------------------------------------|
D|----------------------------------------------------|
A|----------------33333333-33333333-33333333-22222222-|
E|-0-323-00-323-0-------------------------------------|

2.
G|-----------------------------------------------------------------|
D|-----------------------------------------------------------------|
A|------------------------------33333333-33333333-22222222-2-------|
E|-0-323-00-323-00-323-00-323-0------------------------------0-2-3-|

3.
G|------------------------------------------------------------------|
D|------------------------------------------------------------------|
A|------------------------------33333333-33333333-33333333-22222222-|--x2
E|-0-323-00-323-00-323-00-323-0-------------------------------------|

Pre-Chorus
4.
G|---------------------|
D|---------------------|
A|-----------------222-|
E|-000-333-222-333-----|

Chorus
"So how can you expect me to just close my eyes..."
5.
G|-------------------------------------------------------------------------|
D|-------------------------------------------------------------------------|
A|-33333333-33333333/77777777-55555555-33333333-33333333---------2-2222222-|
E|-------------------------------------------------------0-3-2-3-----------|

6.
G|-------------------------------------------------------------------------------------|
D|-------------------------------------------------------------------------------------|
A|-33333333-33333333/77777777-55555555-33333333----------00000000-00000000-33333333-5x-|
E|----------------------------------------------33333333-------------------------------|

Verse
7.
G|------------------------------------------------------------------|
D|------------------------------------------------------------------|
A|------------------------------33333333-33333333-33333333-22222222-|--x2
E|-0-323-00-323-00-323-00-323-0-------------------------------------|

Pre-Chorus
8.
G|---------------------|
D|---------------------|
A|-----------------222-|
E|-000-333-222-333-----|

Chorus
"So how can you expect me to just close my eyes..."
9.
G|-------------------------------------------------------------------------|
D|-------------------------------------------------------------------------|
A|-33333333-33333333/77777777-55555555-33333333-33333333---------2-2222222-|
E|-------------------------------------------------------0-3-2-3-----------|

10.
G|-------------------------------------------------------------------------------------------|
D|-------------------------------------------------------------------------------------------|
A|-33333333-33333333/77777777-55555555-33333333----------00000000-00000000-33333333-55555555-|
E|----------------------------------------------33333333-------------------------------------|

Outro
11.
G|-------------------------------------------|
D|-------------------------------------------|
A|-----------------------3~--------2~--------|--x4
E|-0~--------3~----2~------------------------|

"I know..."
12.
G|-------------------------------------------------------------------------|
D|-------------------------------------------------------------------------|
A|-33333333-33333333-------------------33333333-33333333-------------------|
E|-------------------00000000-00000000-------------------00000000-00000000-|

"I know, I know, I know, I know..."
13.
G|-------------------------------------|
D|-------------------------------------|
A|-33333333-33333333-33333333-33333333-|
E|-------------------------------------|

Bridge
14.
G|-------------------------------------------------------------------------|
D|-------------------------------------------------------------------------|
A|-------------------33333333-22222222-------------------33333333-22222222-|
E|-00000000-00000000-------------------00000000-00000000-------------------|

15.
G|----------------------------------------------------------------------|
D|----------------------------------------------------------------------|
A|-------------------33333333-22222222-------------------33-33-22-22-22-|
E|-00000000-00000000-------------------00000000-00000000----------------|

Chorus
"So how can you expect me to just close my eyes..."
16.
G|-------------------------------------------------------------------------|
D|-------------------------------------------------------------------------|
A|-33333333-33333333/77777777-55555555-33333333-33333333---------2-2222222-|
E|-------------------------------------------------------0-3-2-3-----------|

17.
G|-------------------------------------------------------------------------|
D|-------------------------------------------------------------------------|
A|-33333333-33333333/77777777-55555555-33333333----------00000000-00000000-|
E|----------------------------------------------33333333-------------------|

"So how can you expect me to just close my eyes..."
18.
G|-------------------------------------------------------------------------|
D|-------------------------------------------------------------------------|
A|-33333333-33333333/77777777-55555555-33333333-33333333---------2-2222222-|
E|-------------------------------------------------------0-3-2-3-----------|

19.
G|------------------------------------------------------------------------------------|
D|------------------------------------------------------------------------------------|
A|-33333333-33333333/77777777-55555555-33333333----------00000000-00000000-000000000x-|
E|----------------------------------------------33333333------------------------------|

Outro
20.
G|----------|
D|-2-545-2x-|
A|----------|
E|----------|

Lyrics:

I'm lying down
and you can't see why
I've gone to sleep
Try to relate
can't give in to your temptations
All your hopes and dreams,
washing away silently
forget everything you taught me
when I looked up to you
Fall to your knees
and give up your aspirations
falling to your knees

So how can you expect
me to just close my eyes
and forget your mistakes?
defending you is getting
harder everyday, day

I'm breaking down
the ending's near,
the final call to make it through
you'll choose
try to relate, forget everything
you taught me
when I looked up to you

I'll look inside myself for strength
like a million times before
You'll never let it in because
I know you said
I know you said
I know, I know, I know, I know

Fall, how can you let it go?
how can you be this way?
I'll never forget
where I come from, where I've been
I'll never become you

You've lost it all

___________________________________________

17. Bleeds No More (Live Feat. Wil from Aiden)

Tuning: Drop D (DADG)

* See track 10

In the begining of this track, when the guy says:

"Thank you very much once again..
We are called Silverstein... bla bla bla"

the bassis plays a little:

G|-------------------|
D|-------------------|
A|-------------------|
D|-00000000000000000-|

And then everything is the same as track 10

____________________________________________

18. Smile In Your Sleep (A Crude Mechanical Remix)

I know this song doesnt have any bass but this is the way you could play it


G|---------------------------------------------------------|
D|---------------------------------------------------------|
A|-7--7--7--7----7--7--7--7----3--3--3--3----5--5--5--5----|
E|---------------------------------------------------------|

"YOU SMILE IN YOUR SLEEP!"

G|--9----9x-----9----9x-----5----5x-----7----7x-----------|
D|-----------------------------------------------55-44-22-|
A|-7-7--7------7-7--7------3-3--3------5-5--5-------------|
E|--------------------------------------------------------|

G|--9----9x-----9----9x-----5----5x-----7----7x--|
D|-----------------------------------------------|
A|-7-7--7------7-7--7------3-3--3------5-5--5----|
E|-----------------------------------------------|

____________________________________________

END

I hope you enjoyed and please rate

+++++++++++++++++++++++++++++++++
| RaiLeff                       |
| Underground__Dora@Hotmail.Com |
+++++++++++++++++++++++++++++++++
comments
We did not receive enough feedback on this tab! Please rate:
1 2 3 4 5
7 comments total. Showing first comments.
0 reply
carrotcake wrote on May 16 2007, 07:43 pm

I was gonna tab this album but I was to lazy, I'll give it 5*

0 reply
carrotcake wrote on July 27 2007, 06:18 pm

...and I just relalized something, there IS bass in smile in your sleep acmr, or at least I think so...it's sounds like there is, it starts at about 4:05 into the song, I'm tryin to figure it out but it's hard!

0 reply
RaiLeff wrote on July 28 2007, 12:36 pm

Woah there is?
I've never really heard that song completely
Its kinda boring thou :P

I want to post or [tab]
guest
You may want to rate the tab now too:
select rating
Please do not post tabs as comments. Select "correction" instead!