Oops, an error
Loading. Please wait.

A Better Place Tab

ver1
ver1

Whole song

Interactive

More versions @911Tabs.com
2,132 views 12 this week
3 commentsread comments
1 2 3 4 5
accurate
x 6
Autoscroll
+/-
esc
set tempo
stop
Contributor
Difficulty
Tuning
intermediate
D# G# C# F# A# D#
Hey! There's an official Ultimate Guitar app which is ideal
for learning songs when you're away from computer. Get the app
WARNING: You are trying to view
                                    content from Ultimate-Guitar.com
                                    in an unauthorized application,
                                    which is prohibited.

                                    Please use an official Ultimate
                                    Guitar Tabs application for iPhone,
                                    iPad or Android to access legitimate
                                    chords, guitar, bass, and drum tabs
                                    from Ultimate-Guitar.com database.

                                    Type "ultimate guitar tabs" in Apple
                                    App Store's or Android Market's
                                    search to find the application.
Tabbed by: Joshua Garcia (joshuag523@aol.com)

Tabs for the song: A Better Place by Silverstein
Please rate and let me know if you have any corrections. Thank you.


My favorite song off the whole album. Enjoy!


**For my tab of the whole album, go here:
http://tabs.ultimate-guitar.com/s/silverstein/this_is_how_the_wind_shifts_album_tab.htm **


Tuning: Half-Step Down (D# G# C# F# A# D#)


Intro
Guitar 1:
D#||------------------------------------------------------|
A#||--5~----------7~------8~------5~----------7~---5--8~--|
F#||-----------7-------7-------7-----------7--------------|
C#||------------------------------------------------------|
G#||------------------------------------------------------|
D#||------------------------------------------------------|


Guitar 2:
D#||------------------------------------------------------|
A#||--5~----------7~------8~------5~----------7~------8~--|
F#||--x-----------x-------x-------x-----------x-------x---|
C#||--5~----------7~------9~------5~----------7~------9~--|
G#||------------------------------------------------------|
D#||------------------------------------------------------|



Verse
Guitar 1:
D#||--------------------------------------------------------------------|
A#||--5---5--5-5-5-5-5-5-5-5-5-5-5-----7-7-7-7-7-7-----8-8-8-8-8-8------|
F#||-------------------------------7-7-------------7-7-------------7-7--|
C#||--------------------------------------------------------------------|
G#||--------------------------------------------------------------------|
D#||--------------------------------------------------------------------|
             . . . . . . . . . . . . . . . . . . . . . . . . . . . . .

D#||----------------------------------------------------------------------|
A#||--5---5--5-5-5-5-5-5-5-5-5-5-5-----7-7-7-7-7-7-----8-8-8-8-8-8-8-8-8--|
F#||-------------------------------7-7-------------7-7--------------------|
C#||----------------------------------------------------------------------|
G#||----------------------------------------------------------------------|
D#||----------------------------------------------------------------------|
             . . . . . . . . . . . . . . . . . . . . . . .

Guitar 2:
D#||--------------------------------------------------------------------|
A#||--5---5--5-5-5-5-5-5-5-5-5-5-5-5-5-7-7-7-7-7-7-7-7-8-8-8-8-8-8-8-8--|
F#||--x---x--x-x-x-x-x-x-x-x-x-x-x-x-x-x-x-x-x-x-x-x-x-x-x-x-x-x-x-x-x--|
C#||--5---5--5-5-5-5-5-5-5-5-5-5-5-5-5-7-7-7-7-7-7-7-7-9-9-9-9-9-9-9-9--|
G#||--------------------------------------------------------------------|
D#||--------------------------------------------------------------------|
             . . . . . . . . . . . . . . . . . . . . . . . . . . . . .

D#||----------------------------------------------------------------------|
A#||--5---5--5-5-5-5-5-5-5-5-5-5-5-5-5-7-7-7-7-7-7-7-7-8-8-8-8-8-8-8-8-8--|
F#||--x---x--x-x-x-x-x-x-x-x-x-x-x-x-x-x-x-x-x-x-x-x-x-x-x-x-x-x-x-x-x-x--|
C#||--5---5--5-5-5-5-5-5-5-5-5-5-5-5-5-7-7-7-7-7-7-7-7-9-9-9-9-9-9-9-9-9--|
G#||----------------------------------------------------------------------|
D#||----------------------------------------------------------------------|
             . . . . . . . . . . . . . . . . . . . . . . .



Pre-Chorus
Guitar 1:
D#||----------------------------------------|-----------------------------------------|
A#||----------------------------------------|-----------------15---17~----1717171717--|
F#||--14---12---16---11---12~---------11----|--12---14---16---x----x------x-x-x-x-x---|
C#||--x----x----x----x----x-----------x-----|--x----x----x----12---14~----1414141414--|
G#||--12---10---14---9----10~---------9-----|--10---12---14---------------------------|
D#||----------------------------------------|-----------------------------------------|


Guitar 2:
D#||----------------------------------------|-------------------------------------|
A#||----------------------------------------|-------------------------------------|
F#||----------------------------------------|-------------------------------------|
C#||-----------------4444-5555555555555555--|-----------------4444-5555555555555--|
G#||--2222-4444-5555-2222-3333333333333333--|--2222-4444-5555-2222-3333333333333--|
D#||--0000-2222-3333------------------------|--0000-2222-3333---------------------|
      .... .... .... .... ................     .... .... .... .... ........



Chorus
Guitar 1:
D#||--------------------------------------------------------------------------|
A#||--------------------------------------------------------------------------|
F#||--14141414-12121212-16161616-11111111-121212121212121212121212---16~--14--|
C#||--x-x-x-x--x-x-x-x--x-x-x-x--x-x-x-x--x-x-x-x-x-x-x-x-x-x-x-x----x----x---|
G#||--12121212-10101010-14141414-9-9-9-9--101010101010101010101010---14~--12--|
D#||--------------------------------------------------------------------------|

D#||------------------------------------------------------------------------|
A#||-----------------------------15151515-17171717171717171717171717171717--|
F#||--12121212-14141414-16161616-x-x-x-x--x-x-x-x-x-x-x-x-x-x-x-x-x-x-x-x---|
C#||--x-x-x-x--x-x-x-x--x-x-x-x--12121212-14141414141414141414141414141414--|
G#||--10101010-12121212-14141414--------------------------------------------|
D#||------------------------------------------------------------------------|

D#||--------------------------------------------------------------------------|
A#||--------------------------------------------------------------------------|
F#||--14141414-12121212-16161616-11111111-121212121212121212121212---16~--14--|
C#||--x-x-x-x--x-x-x-x--x-x-x-x--x-x-x-x--x-x-x-x-x-x-x-x-x-x-x-x----x----x---|
G#||--12121212-10101010-14141414-9-9-9-9--101010101010101010101010---14~--12--|
D#||--------------------------------------------------------------------------|

D#||-------------------------------------------------------|
A#||-----------------------------15151515-17171717171717~--|
F#||--12121212-14141414-16161616-x-x-x-x--x-x-x-x-x-x-x----|
C#||--x-x-x-x--x-x-x-x--x-x-x-x--12121212-14141414141414~--|
G#||--10101010-12121212-14141414---------------------------|
D#||-------------------------------------------------------|


Guitar 2:
D#||-------------------------------------------|------------------------------------------------|
A#||-------------------------------------------|------------------------------------------------|
F#||-------------------------------------------|------------------------------------------------|
C#||-----------------5555-555555555555---7--8--|--9999-12121212-12121212-4444-5555555555555555--|
G#||--2222-5555-5555-2222-333333333333---5--6--|--7777-9-9-9-9--10101010-2222-3333333333333333--|
D#||--0000-2222-3333---------------------------|------------------------------------------------|

D#||-------------------------------------------|-----------------------------------------------|
A#||-------------------------------------------|-----------------------------------------------|
F#||-------------------------------------------|-----------------------------------------------|
C#||-----------------5555-555555555555---7--8--|--9999-12121212-12121212-4444-555555555555555--|
G#||--2222-5555-5555-2222-333333333333---5--6--|--7777-9-9-9-9--10101010-2222-333333333333333--|
D#||--0000-2222-3333---------------------------|-----------------------------------------------|
                                                                                      ....



Pre-Verse
Guitar 1:
D#||------------------------------------------------------|
A#||--5~--------------------------5~-------8--5~----------|
F#||---------------------------7----------------------7\--|
C#||------------------------------------------------------|
G#||------------------------------------------------------|
D#||------------------------------------------------------|


Guitar 2:
D#||------------------------------------------------------|
A#||--5~----------7~------8~------5~----------7~------8\--|
F#||--x-----------x-------x-------x-----------x-------x\--|
C#||--5~----------7~------9~------5~----------7~------9\--|
G#||------------------------------------------------------|
D#||------------------------------------------------------|



Verse
Guitar 1:
D#||--------------------------------------------------------------------|
A#||--5---5--5-5-5-5-5-5-5-5-5-5-5-----7-7-7-7-7-7-----8-8-8-8-8-8------|
F#||-------------------------------7-7-------------7-7-------------7-7--|
C#||--------------------------------------------------------------------|
G#||--------------------------------------------------------------------|
D#||--------------------------------------------------------------------|
             . . . . . . . . . . . . . . . . . . . . . . . . . . . . .

D#||----------------------------------------------------------------------|
A#||--5---5--5-5-5-5-5-5-5-5-5-5-5-----7-7-7-7-7-7-----8-8-8-8-8-8-8-8-8--|
F#||-------------------------------7-7-------------7-7--------------------|
C#||----------------------------------------------------------------------|
G#||----------------------------------------------------------------------|
D#||----------------------------------------------------------------------|
             . . . . . . . . . . . . . . . . . . . . . . .

Guitar 2:
D#||--------------------------------------------------------------------|
A#||--5---5--5-5-5-5-5-5-5-5-5-5-5-5-5-7-7-7-7-7-7-7-7-8-8-8-8-8-8-8-8--|
F#||--x---x--x-x-x-x-x-x-x-x-x-x-x-x-x-x-x-x-x-x-x-x-x-x-x-x-x-x-x-x-x--|
C#||--5---5--5-5-5-5-5-5-5-5-5-5-5-5-5-7-7-7-7-7-7-7-7-9-9-9-9-9-9-9-9--|
G#||--------------------------------------------------------------------|
D#||--------------------------------------------------------------------|
             . . . . . . . . . . . . . . . . . . . . . . . . . . . . .

D#||----------------------------------------------------------------------|
A#||--5---5--5-5-5-5-5-5-5-5-5-5-5-5-5-7-7-7-7-7-7-7-7-8-8-8-8-8-8-8-8-8--|
F#||--x---x--x-x-x-x-x-x-x-x-x-x-x-x-x-x-x-x-x-x-x-x-x-x-x-x-x-x-x-x-x-x--|
C#||--5---5--5-5-5-5-5-5-5-5-5-5-5-5-5-7-7-7-7-7-7-7-7-9-9-9-9-9-9-9-9-9--|
G#||----------------------------------------------------------------------|
D#||----------------------------------------------------------------------|
             . . . . . . . . . . . . . . . . . . . . . . .



Pre-Chorus
Guitar 1:
D#||-------------------------------------------|
A#||-----------------15---17~------------------|
F#||--14---12---16---x----x--------------------|
C#||--x----x----x----12---14~------------------|
G#||--12---10---14---------------///pick////---|
D#||-----------------------------////slide///--|


Guitar 2 (Dub):
D#||-------------------------------------------|
A#||-------------------------------------------|
F#||--14---12---16---11---12~------------------|
C#||--x----x----x----x----x--------------------|
G#||--12---10---14---9----10~----///pick////---|
D#||-----------------------------////slide///--|


Guitar 3:
D#||-------------------------------------------|
A#||-------------------------------------------|
F#||-------------------------------------------|
C#||-----------------5~---5~-------------------|
G#||--2~---5~---5~---2~---3~-----///pick////---|
D#||--0~---2~---3~---------------////slide///--|



Chorus
Guitar 1:
D#||--------------------------------------------------------------------------|
A#||--------------------------------------------------------------------------|
F#||--14141414-12121212-16161616-11111111-121212121212121212121212---16~--14--|
C#||--x-x-x-x--x-x-x-x--x-x-x-x--x-x-x-x--x-x-x-x-x-x-x-x-x-x-x-x----x----x---|
G#||--12121212-10101010-14141414-9-9-9-9--101010101010101010101010---14~--12--|
D#||--------------------------------------------------------------------------|

D#||------------------------------------------------------------------------|
A#||-----------------------------15151515-17171717171717171717171717171717--|
F#||--12121212-14141414-16161616-x-x-x-x--x-x-x-x-x-x-x-x-x-x-x-x-x-x-x-x---|
C#||--x-x-x-x--x-x-x-x--x-x-x-x--12121212-14141414141414141414141414141414--|
G#||--10101010-12121212-14141414--------------------------------------------|
D#||------------------------------------------------------------------------|

D#||--------------------------------------------------------------------------|
A#||--------------------------------------------------------------------------|
F#||--14141414-12121212-16161616-11111111-121212121212121212121212---16~--14--|
C#||--x-x-x-x--x-x-x-x--x-x-x-x--x-x-x-x--x-x-x-x-x-x-x-x-x-x-x-x----x----x---|
G#||--12121212-10101010-14141414-9-9-9-9--101010101010101010101010---14~--12--|
D#||--------------------------------------------------------------------------|

D#||-----------------------------------------------------------------------|
A#||-----------------------------15151515-171717171717171717171717-161616--|
F#||--12121212-14141414-16161616-x-x-x-x--x-x-x-x-x-x-x-x-x-x-x-x--x-x-x---|
C#||--x-x-x-x--x-x-x-x--x-x-x-x--12121212-141414141414141414141414-141414--|
G#||--10101010-12121212-14141414-------------------------------------------|
D#||-----------------------------------------------------------------------|


Guitar 2:
D#||-------------------------------------------|------------------------------------------------|
A#||-------------------------------------------|------------------------------------------------|
F#||-------------------------------------------|------------------------------------------------|
C#||-----------------5555-555555555555---7--8--|--9999-12121212-12121212-4444-5555555555555555--|
G#||--2222-5555-5555-2222-333333333333---5--6--|--7777-9-9-9-9--10101010-2222-3333333333333333--|
D#||--0000-2222-3333---------------------------|------------------------------------------------|

D#||-------------------------------------------|------------------------------------------------|
A#||-------------------------------------------|------------------------------------------------|
F#||-------------------------------------------|------------------------------------------------|
C#||-----------------5555-555555555555---7--8--|--9999-12121212-12121212-4444-555555555555-444--|
G#||--2222-5555-5555-2222-333333333333---5--6--|--7777-9-9-9-9--10101010-2222-333333333333-222--|
D#||--0000-2222-3333---------------------------|------------------------------------------------|



Breakdown
Guitar 1:
D#||------------------------------------|----------------------------------|
A#||------------------------------------|----------------------------------|
F#||------------------------------------|----------------------------------|
C#||-------12---9--10-------------------|-------12---9--10-----------------|
G#||-------14---10-12---9----10---9-9---|-------14---10-12------10----10~--|
D#||--000---------------10---12---1111--|--000--------------000-12-00-12~--|


D#||------------------------------------|-----------------------------------|
A#||------------------------------------|-----------------------------------|
F#||------------------------------------|-----------------------------------|
C#||----------9-------------------------|-------12---9--10------------------|
G#||----------10--------9----10---9-9---|-------14---10-12--------10-10-10--|
D#||--000---------------10---12---1010--|--000--------------00000-12-12-12--|


Guitar 2:
D#||------------------------------------|----------------------------------|
A#||------------------------------------|----------------------------------|
F#||------------------------------------|----------------------------------|
C#||--222-------------------------------|--222-----------------------------|
G#||--222-------------------------------|--222------------------7----7~----|
D#||--000-------------------------------|--000--------------000---00-------|


D#||------------------------------------|-----------------------------------|
A#||------------------------------------|-----------------------------------|
F#||------------------------------------|-----------------------------------|
C#||--222-----5-------------------------|--222--------------------5--5--5---|
G#||--222-----7-------------------------|--222--------------------7--7--7---|
D#||--000-------------------------------|--000--------------00000-----------|



Bridge
Guitar 1:
D#||------------------------------------|
A#||------------------------------------|
F#||------------------------------------|
C#||-------12---9--10-------------------| x4
G#||-------14---10-12---9----10---9-9---|
D#||--000---------------10---12---1010--|


Guitar 2:
D#||---------------------------------------|---------------------------------------|
A#||---------------------------------------|---------------------------------------|
F#||---------------------------------------|---------------------------------------|
C#||--55555555-44444444--------------------|--55555555-44444444--------------------|
G#||--33333333-22222222-22222222-55555555--|--33333333-22222222-22222222-55555555--|
D#||--------------------00000000-33333333--|--------------------00000000-33333333--|



Interlude
Guitar 1:
D#||--------------------------------------------------------------------------|
A#||--------------------------------------------------------------------------|
F#||--14141414-12121212-16161616-11111111-121212121212121212121212-111111111--|
C#||--x-x-x-x--x-x-x-x--x-x-x-x--x-x-x-x--x-x-x-x-x-x-x-x-x-x-x-x--x-x-x-x----|
G#||--12121212-10101010-14141414-9-9-9-9--101010101010101010101010-9-9-9-9----|
D#||--------------------------------------------------------------------------|

D#||--------------------------------------------------------------------------|
A#||-----------------------------15151515-1717171717171717-15151515-16161616--|
F#||--12121212-14141414-16161616-x-x-x-x--x-x-x-x-x-x-x-x--x-x-x-x--x-x-x-x---|
C#||--x-x-x-x--x-x-x-x--x-x-x-x--12121212-1414141414141414-12121212-13131313--|
G#||--10101010-12121212-14141414----------------------------------------------|
D#||--------------------------------------------------------------------------|


Guitar 2:
D#||--------------------------------------------------------------------------|
A#||--------------------------------------------------------------------------|
F#||--------------------------------------555---------------------------------|
C#||--222---------------------------------555---------------------------------|
G#||--222---------------------------------333---------------------------------|
D#||--000---------------------------------------------------------------------|


D#||--------------------------------------------------------------------------|
A#||--------------------------------------------------------------------------|
F#||--------------------------------------5~---------------7~-------8~--------|
C#||--222---------------------------------5~---------------7~-------8~--------|
G#||--222---------------------------------3~---------------5~-------6~--------|
D#||--000---------------------------------------------------------------------|



Chorus
Guitar 1:
D#||--------------------------------------------------------------------------|
A#||--------------------------------------------------------------------------|
F#||--14141414-12121212-16161616-11111111-121212121212121212121212---16~--14--|
C#||--x-x-x-x--x-x-x-x--x-x-x-x--x-x-x-x--x-x-x-x-x-x-x-x-x-x-x-x----x----x---|
G#||--12121212-10101010-14141414-9-9-9-9--101010101010101010101010---14~--12--|
D#||--------------------------------------------------------------------------|

D#||------------------------------------------------------------------------|
A#||-----------------------------15151515-17171717171717171717171717171717--|
F#||--12121212-14141414-16161616-x-x-x-x--x-x-x-x-x-x-x-x-x-x-x-x-x-x-x-x---|
C#||--x-x-x-x--x-x-x-x--x-x-x-x--12121212-14141414141414141414141414141414--|
G#||--10101010-12121212-14141414--------------------------------------------|
D#||------------------------------------------------------------------------|

D#||--------------------------------------------------------------------------|
A#||--------------------------------------------------------------------------|
F#||--14141414-12121212-16161616-11111111-121212121212121212121212---16~--14--|
C#||--x-x-x-x--x-x-x-x--x-x-x-x--x-x-x-x--x-x-x-x-x-x-x-x-x-x-x-x----x----x---|
G#||--12121212-10101010-14141414-9-9-9-9--101010101010101010101010---14~--12--|
D#||--------------------------------------------------------------------------|

D#||-----------------------------------------------------------------------|
A#||-----------------------------15151515-171717171717171717171717-161616--|
F#||--12121212-14141414-16161616-x-x-x-x--x-x-x-x-x-x-x-x-x-x-x-x--x-x-x---|
C#||--x-x-x-x--x-x-x-x--x-x-x-x--12121212-141414141414141414141414-131313--|
G#||--10101010-12121212-14141414-------------------------------------------|
D#||-----------------------------------------------------------------------|


Guitar 2:
D#||-------------------------------------------|------------------------------------------------|
A#||-------------------------------------------|------------------------------------------------|
F#||-------------------------------------------|------------------------------------------------|
C#||-----------------5555-555555555555---7--8--|--9999-12121212-12121212-4444-5555555555555555--|
G#||--2222-5555-5555-2222-333333333333---5--6--|--7777-9-9-9-9--10101010-2222-3333333333333333--|
D#||--0000-2222-3333---------------------------|------------------------------------------------|

D#||-------------------------------------------|------------------------------------------------|
A#||-------------------------------------------|------------------------------------------------|
F#||-------------------------------------------|------------------------------------------------|
C#||-----------------5555-555555555555---7--8--|--9999-12121212-12121212-4444-555555555555-444--|
G#||--2222-5555-5555-2222-333333333333---5--6--|--7777-9-9-9-9--10101010-2222-333333333333-222--|
D#||--0000-2222-3333---------------------------|------------------------------------------------|


Guitar 2:
D#||-------|
A#||-------|
F#||-------|
C#||-------|
G#||--444--|
D#||--222--|



Breakdown
Guitar 1:
D#||------------------------------------|----------------------------------|
A#||------------------------------------|----------------------------------|
F#||------------------------------------|----------------------------------|
C#||-------12---9--10-------------------|-------12---9--10-----------------|
G#||-------14---10-12---9----10---9-9---|-------14---10-12------10----10~--|
D#||--000---------------10---12---1111--|--000--------------000-12-00-12~--|


D#||------------------------------------|-----------------------------------|
A#||------------------------------------|-----------------------------------|
F#||------------------------------------|-----------------------------------|
C#||----------9-------------------------|-------12---9--10------------------|
G#||----------10--------9----10---9-9---|-------14---10-12--------10-10-10--|
D#||--000---------------10---12---1010--|--000--------------00000-12-12-12--|


Guitar 2:
D#||------------------------------------|----------------------------------|
A#||------------------------------------|----------------------------------|
F#||------------------------------------|----------------------------------|
C#||--222-------------------------------|--222-----------------------------|
G#||--222-------------------------------|--222------------------7----7~----|
D#||--000-------------------------------|--000--------------000---00-------|


D#||------------------------------------|-----------------------------------|
A#||------------------------------------|-----------------------------------|
F#||------------------------------------|-----------------------------------|
C#||--222-----5-------------------------|--222--------------------5--5--5---|
G#||--222-----7-------------------------|--222--------------------7--7--7---|
D#||--000-------------------------------|--000--------------00000-----------|



Outro
Guitar 1:
D#||------------------------------------------------------------------------------------------|
A#||----------------------------------------------------'7------------------------------------|
F#||--------'5~---------------'5--------------------------------------------------------------|
C#||--333---------------333-----------3-3-----3---333-------------------12---9--10------------|
G#||--333---------------333-----------------------333---------7\--------14---10-12--10-10-10--|
D#||--111---------------111-------1-1-----1-1-----111--------------000--------------12-12-12--|


Guitar 2:
D#||----------------------------------------------------'3---------------------------------|
A#||---------------------------------------------------------------------------------------|
F#||--------'2~---------------'2-----------------------------------------------------------|
C#||--333---------------333-----------3-3-----3---333-------------------------------2-2-2--|
G#||--333---------------333-----------------------333---------7\--------------------2-2-2--|
D#||--111---------------111-------1-1-----1-1-----111--------------000--------------0-0-0--|





Tablature Legend
----------------
 h   hammer-on
 p   pull-off
 b   bend
 pb  pre-bend
 r   release bend
 ~   hold / vibrato
 .   palm mute
 /   slide up
 \   slide down
 *   pinch harmonic
 '   natural harmonic
 x   mute note
 T   tap
comments
print report bad tab
3 comments total.
0 reply
aseofdiamonds wrote on May 9 2014, 03:32 pm

Silverstein plays in drop C# (technically drop D, one-half step down) so you are almost right. However, the low D# is a C#

The tuning (from low to high):

C# G# C# F# A# D#

0 reply
Joshua Garcia wrote on May 9 2014, 04:31 pm, edited at 04:32 pm

Unless you have solid proof this is how they play it, I would appreciate it if you would NOT tell me what tuning it is in just because that's what YOU think or because that's what they usually play in.

I'm fully aware they usually play in Drop C#, but that does NOT mean EVERY song they play is in that tuning. I have the ears to tell the difference. If this tab were in Drop C#, you wouldn't even be able to play the Breakdown, or more specifically, the part at 1:48 in the song. You would know this if you actually tried it out and compared it for yourself rather than assume it's wrong because of the tuning.

I'm sorry if this comes across as rude, but people who ASSUME the tuning is wrong for whatever reason is a bit of a pet peeve of mine.

0 reply
aseofdiamonds wrote on May 10 2014, 02:39 pm

Ok I'm wrong. I just asked the guitarist on twitter and he said its in Eb standard.

I want to post or [tab]
guest
You may want to rate the tab now too:
select rating
Please do not post tabs as comments. Select "correction" instead!