Oops, an error
Loading. Please wait.

A Shipwreck In The Sand Bass Tab

ver1
ver1

Album

Whole song

More versions @911Tabs.com
1,348 views 1 this week
1 commentread comment
1 2 3 4 5
excellent!
x 2
add to favorites launch autoscroll
font size
0
reset
Autoscroll
+/-
esc
set tempo
stop
Contributor
WARNING: You are trying to view
                                    content from Ultimate-Guitar.com
                                    in an unauthorized application,
                                    which is prohibited.

                                    Please use an official Ultimate
                                    Guitar Tabs application for iPhone,
                                    iPad or Android to access legitimate
                                    chords, guitar, bass, and drum tabs
                                    from Ultimate-Guitar.com database.

                                    Type "ultimate guitar tabs" in Apple
                                    App Store's or Android Market's
                                    search to find the application.
++++++++++++++++++++++++++++++++++++++++
| Silverstein- A Shipwreck In The Sand |
++++++++++++++++++++++++++++++++++++++++


Bass Tab
Album: "A Shipwreck In The Sand" -- 2009


And Silverstein does it again!!
This album really amazed me, it has a little
more hardcore and metal in it
but Silverstein sure does know how to mix it with
screaming vocals and crazy guitars
Anyway, here are the bass tabs
I hope you enjoy!
Please rate my hard work thank you kind tabbers!


Raileff

_____________________________________________________


Tuning: We have a lot all through this album
-Drop C# (C#ADG)
-Drop D (DADG)
-HalfStep Down (EbADG)
-Standard (EADG)


Keys:

| x: Mute
| ~: Let Ring
| /: Slide Up
| \: Slide Down
| h: Hammer On
| p: Pull Off



Tracks:

1. A Great Fire
2. Vices
3. Broken Stars
4. American Dream
5. Their Lips Sink Ships
6. I Knew I Couldnt Trust You
7. Born Dead
8. A Shipwreck In The Sand
9. I Am The Arsonist
10. You're All I Have
11. We Are Not The World
12. A Hero Loses Everyday
13. The Tide Raises Every Ship
14. The End


_______________________________________________________________

1.

+++++++++++++++++++++++++++++
| Silverstein- A Great Fire |
+++++++++++++++++++++++++++++


"I can see through my tired eyes..."


Tuning: Drop C# (C#ADG)



Intro
1.
G||---------------------------------------------------------------------------------------|
D||---------------------------------------------------------------------------------------|
A||-000----------------------------------------000----------------------------------------|
C#|-----0~--00000x-00000x-0x---00000x-00000x-0-----0~--00000x-00000x-0x---00000x-00000x-0-|

2.
G||---------------------------------------------------------------------------------------------|
D||---------------------------------------------------------------------------------------------|
A||-000----------------------------------------000------------------------------------------000-|
C#|-----0~--00000x-00000x-0x---00000x-00000x-0-----0~--00000x-00000x-0x---00000000-00000000-----|

Verse
"Burning down..."
3.
G||------------------------------------------------|
D||------------------------------------------------|
A||----000-----000---------------------------------|--x2
C#|-0~------0~------0~--3-2-0x--55-55-77-77-7-5-3x-|

"Dont try..."
4.
G||---------------------------------------------------------|
D||---------------------------------------------------------|
A||-7------7------6------6----------------------------------|--x2
C#|--00000--00000--00000--00000-555555-555555-777777-887755-|

Pre-Chorus
"And as I heard..."
5.
G||--------------------------------------------------|
D||--------------------------------------------------|
A||-000------------------------------------------000-|
C#|-----0~--00000x-00000x-0x---00000000-00000000-----|

Chorus
"I can see through the flames..."
6.
G||-----------------------------------------------------------------------------------------|
D||-----------------------------------------------------------------------------------------|
A||------------0-0-00-000----------------------------------0-0-00-000-----------------------|
C#|-0-0-00-000------------3-3-33-333-2-2-22-222-0-0-00-000------------3-3-33-333-7-7-77-777-|

Verse
"I threw you over my shoulder..."
7.
G||---------------------------------------------------------|
D||---------------------------------------------------------|
A||-7------7------6------6----------------------------------|--x2
C#|--00000--00000--00000--00000-555555-555555-777777-887755-|

Chorus
"I can see through the flames..."
8.
G||-----------------------------------------------------------------------------------------|
D||-----------------------------------------------------------------------------------------|
A||------------0-0-00-000----------------------------------0-0-00-000-----------------------|
C#|-0-0-00-000------------3-3-33-333-2-2-22-222-0-0-00-000------------3-3-33-333-7-7-77-777-|

"I can see through my tired eyes..."
9.
G||--------------------------------------------------------------------------------------------|
D||--------------------------------------------------------------------------------------------|
A||----------2-0-0-00-000--------------------------------2-0-0-00-000--------------------------|
C#|-0-0-00-00-------------3-3-33-333-2-2-22-222-0-0-00-00-------------3-3-33-333-777777-777777-|

Outro
"And there you were..."
10.
G||---------------------------------------------------------------|
D||---------------------------------------------------------------|
A||-0~-------------------------------------------------------2~---|
C#|-------------------------------------------2~---3~---0~--------|

"As the world..."
11. 
G||----------------------------------------------------------------------------------------------|
D||----------2-1----------1-2--------------------------------------------------------------------|
A||-0~-0-00~-----2~-2-22~-------------------4~-4-46~-6-6-0~-0-00~-0-0-2~-2-22~-2-2-------------2~|
C#|----------------------------0~-0-00~-0-0----------------------------------------2~--3~--0~----|

12.
G||-------------------|
D||-------------------|
A||-0~----------------|
C#|-------------------|

Pre-Chorus
"And as I see..."
13.
G||--------------------------------------------------|
D||--------------------------------------------------|
A||-000------------------------------------------000-|
C#|-----0~--00000x-00000x-0x---00000000-00000000-----|

Chorus
"I can see through the flames..."
14.
G||-----------------------------------------------------------------------------------------|
D||-----------------------------------------------------------------------------------------|
A||------------0-0-00-000----------------------------------0-0-00-000-----------------------|
C#|-0-0-00-000------------3-3-33-333-2-2-22-222-0-0-00-000------------3-3-33-333-7-7-77-777-|

"I can see through my tired eyes..."
15.
G||-----------------------------------------------------------------------------------------|
D||-----------------------------------------------------------------------------------------|
A||----------2-0-0-00-000--------------------------------2-0-0-00-000-----------------------|
C#|-0-0-00-00-------------3-3-33-333-2-2-22-222-0-0-00-00-------------3-3-33-333-7-7-77-777-|

16.
G||-----------------------------|
D||-----------------------------|
A||-----------------------------|
C#|-777777-777777-777777-777777-|

Outro
17.
G||-----------------------------------|
D||-----------------------------------|
A||-----------------------------------|
C#|-0~--------------------------------|


Lyrics:

Burning down
We can't stop it
We gotta get out
Start again
The memories are gone forever

Don't try
To turn this around on me
I'm the one that saved you
This was my home
This was my life
It's not always just about you

And as I heard
The sirens begin to chime
I can feel my heart begin to race

I can see through the flames
That the fire cleanses me
Mind and soul now the same
And my body guides the way

I threw you over my shoulder
With the angel
On my other
I'm not your hero
I'll never be
What you wanted
What you thought I would be

I can see through my tired eyes
My sickness controls me
Deep inside I know trust (I know trust)
Is the mother of deceit
(Is the mother of deceit)

And there you were
Six years old, ashes in your hair
You're not scared
You've seen so much pain in so few years
As the world 
Becomes a place where no one wants to stay
We remain
Silent until it's too late

And as I see
The planes take over the sky
I can feel it coming to the end

_______________________________________________


++++++++++++++++++++++
| Silverstein- Vices |
++++++++++++++++++++++


"Id rather sleep on the street..."


Tuning: Drop C# (C#ADG)




Intro
1.
G||-------------------|
D||-------------------|
A||-------------------|
C#|-0~----------------|

2.
G||--------------------------------------|
D||--------------------------------------|
A||-------------0-000000-000-2-22222-222-|
C#|-000~---------------------------------|

"You cant see me behind the door..."
3.
G||--------------------------------------------|
D||--------------------------------------------|
A||--------------------------------------------|
C#|-7h8-7h8-0~--7h8-0~--0-7h8-7h8-0~--7h8-5555-|

Verse
"You call him..."
4.
G||-----------------------------------------------------|
D||-----------------------------------------------------|
A||------------------------------2422-0-000000-2-222222-|--x2
C#|-0-00000000000000-0-0000000000-----------------------|

"And be unfaithful..."
5.
G||-----------------------------------------------|
D||-----------------------------------------------|
A||------------------0~----0~----2222222-2x-------|
C#|-0-00000000000000------------------------------|

Chorus
"Seven seven with a lime..."
6.
G||---------------------------------------------------------------------|
D||---------------------------------------------------------------------|
A||---------------------------------2-2222222222222-0-00000-2-----------|--x2
C#|-0-0000000000000-3-3333333333333---------------------------0h3-0h3h5-|

Verse
"Im seven deep..."
7.
G||-----------------------------------------------------|
D||-----------------------------------------------------|
A||------------------------------2422-0-000000-2-222222-|--x2
C#|-0-00000000000000-0-0000000000-----------------------|

"Ill fight this temptation..."
8.
G||-----------------------------------------------|
D||-----------------------------------------------|
A||------------------0~----0~----2222222-2x-------|
C#|-0-00000000000000------------------------------|

Chorus
"Seven seven with a lime..."
9.
G||---------------------------------------------------------------------|
D||---------------------------------------------------------------------|
A||---------------------------------2-2222222222222-0-00000-2-----------|--x2
C#|-0-0000000000000-3-3333333333333---------------------------0h3-0h3h5-|

Outro
10.
G||-------------------|
D||-------------------|
A||-------------------|
C#|-0~----------------|

11.
G||--------------------------------------|
D||--------------------------------------|
A||-------------0-000000-000-2-22222-222-|
C#|-000~---------------------------------|

Bridge
"Im not coming home tonight..."
12.
G||-----------------------------------------------------------------------------------|
D||-----------------------------------------------------------------------------------|
A||-----------------------------------------------------------------------------------|
C#|-7h8-7h8-0~--7h8-0~--0-7h8-7h8-0~--7h8-555-7h8-7h8-0~--7h8-0~--0-7h8-7h8-5x--------|

"Im not coming home tonight..."
12.
G||-------------------------------------------------------------------------------------|
D||-------------------------------------------------------------------------------------|
A||-------------------------------------------------------------------------------------|
C#|-7h8-7h8-0~--7h8-0~--0-7h8-7h8-0~--7h8-555-7h8-7h8-0~--7h8-0~--0-7h8-7h8-0~--7h8-555-|

Pre-Chorus
"On this city street..."
13.
G||------------------------------------|
D||------------------------------------|
A||-0~----0~----22222222-2x------------|
C#|--------------------------------12/-|

Chorus
"Seven seven with a lime..."
14.
G||---------------------------------------------------------------------|
D||---------------------------------------------------------------------|
A||---------------------------------2-2222222222222-0-00000-2-----------|--x2
C#|-0-0000000000000-3-3333333333333---------------------------0h3-0h3h5-|

Outro
15.
G||-------------------|
D||-------------------|
A||-------------------|
C#|-0~----------------|



Lyrics:

You can't see me behind the door
I just heard everything you said
You call him
You're saying all the things you used to say to me
Who is he
I never thought you'd drop that avalanche on me
And be unfaithful
These hotel walls are paper thin
I'm going out

Seven seven with the lime will keep me safe
Long enough to stop the thought of your embrace inside my head
The lies that I've been fed
Throw it back behind my lips the pain is gone
Line em up and knock em down the night goes on 
and on and on to let me cope with this disaster

I'm seven deep
Long brown hair and blue eyes
Looking right at me
Who is she
I never thought I'd ever think of stepping out
I'll fight this temptation
This crowded bar is full of sin
I'm going out

I'm not coming home tonight
I'd rather sleep on the street
I'm not coming home to you
I won't sleep with the devil

On this city street I'll rest my head tonight
I'm going out!

______________________________________________________________________

3.

+++++++++++++++++++++++++++++
| Silverstein- Broken Stars |
+++++++++++++++++++++++++++++


"My mind's made up..."


Tuning: Drop C# (C#ADG)



Intro
"Shooting daggers at me..."
1.
G||------------------------------------------------------------------|
D||------------------------------------------------------------------|
A||---------------------------------00-000-000-000-022-222-233-333-3-|
C#|-00-000-000-000-033-333-333-333-3---------------------------------|

"Dont be so proud..."
2.
G||--------------------------------------------------------------------|
D||--------------------------------------------------------------------|
A||---------------------------------00-000-000-000-0-------------------|
C#|-00-000-000-000-033-333-333-333-3-----------------33333333-22222222-|

"You wont embrace this..."
3.
G||-------------------------------------------------------------|
D||-------------------------------------------------------------|
A||-44-4-444-4-444-22-2-222-2-222-00-0-000-0-000----------------|
C#|----------------------------------------------77-7-777-7-777-|

Verse
"Broken stars..."
4.
G||-------------------------------------------------------------------|
D||-------------------------------------------------------------------|
A||---------------0-00000000000000---------------------------2-222222-|
C#|-0~--0x-------------------------3-33333333333333-7-777777----------|

"I know you'll never change..."
5.
G||---------------------------------------------------------------------|
D||---------------------------------------------------------------------|
A||------------------0-00000000000000-----------------------------------|
C#|-0-00000000000000------------------3-33333333333333-7-77777777777777-|

Chorus
"My mind's made up..."
6.
G||----------------------------------------------------------------------|
D||----------------------------------------------------------------------|
A||---------------------------------0-0000000-00000000-------------------|--x2
C#|-0~--0x--------3-3333333-3333333--------------------33333333-22222222-|

Outro
"Fall..."
7.
G||------------------|
D||------------------|
A||-0x---------------|
C#|------------------|

Verse
"We cast a single shadow..."
8.
G||----------------------------------------------------------------------|
D||----------------------------------------------------------------------|
A||------------------0-00000000000000---------------------------2-222222-|
C#|-0-00000000000000------------------3-33333333333333-7-777777----------|

"But you need light to see..."
9.
G||---------------------------------------------------------------------|
D||---------------------------------------------------------------------|
A||------------------0-00000000000000-----------------------------------|
C#|-0-00000000000000------------------3-33333333333333-7-77777777777777-|

Chorus
"My mind's made up..."
10.
G||----------------------------------------------------------------------|
D||----------------------------------------------------------------------|
A||---------------------------------0-0000000-00000000-------------------|--x2
C#|-0~--0x--------3-3333333-3333333--------------------33333333-22222222-|

Bridge
"Fall into the whole..."
11.
G||-----------------------------------------------------------------------|
D||---------------------------------------------------------------6666666-|
A||-0-000000000000-2-4-4444-2-4-4444-2-0-000000000000-2-------------------|
C#|-----------------------------------------------------7-7777777---------|

"Ill find the strenght..."
12.
G||------------------------------------------------------------------------------------------|
D||------------------------------------------------------------------------------------------|
A||-0-000000000000-2-4-4444-2-4-4444-2-0-000000000000-2--------2--------2--------2-----------|
C#|-----------------------------------------------------7-7777---7-7777---7-7777---7x--------|

Chorus
"My mind's made up..."
13.
G||----------------------------------------------------------------------|
D||----------------------------------------------------------------------|
A||---------------------------------0-0000000-00000000-------------------|--x2
C#|-0~--0x--------3-3333333-3333333--------------------33333333-22222222-|

"Fall..."
14.
G||---------------------------|
D||---------------------------|
A||---------------------------|
C#|-0~------------------------|

Outro
"You!!..."
15.
G||---------------------------------------|
D||---------------------------------------|
A||---------------------------0~----2~----|--x2
C#|-0x------------------------------------|

16.
G||----------------------------------------------------|
D||-221----------4421---------221----------------------|
A||----4-------------------------4---------0~----2~----|
C#|------000-000------000-000------000-000-------------|

17.
G||----------------------------------------------------|
D||-221----------4421---------221----------------------|
A||----4-------------------------4---------0~----3~----|
C#|------000-000------000-000------000-000-------------|

18.
G||----------------------------------------------------|
D||-221----------4421---------221----------------------|
A||----4-------------------------4---------0~----2~----|
C#|------000-000------000-000------000-000-------------|

19.
G||-----------------------------------------------------------------------------|
D||-221----------4421---------221-----------------------------------------------|
A||----4-------------------------4---------0~----2~----0~----2~----0~----2~-----|
C#|------000-000------000-000------000-000-----------------------------------00-|

20.
G||-----------------------------|
D||-----------------------------|
A||-----------------------------|
C#|-0~--------------------------|


Lyrics:

Shooting daggers at me
Letting it be known you're not impressed
I never fail at failing all your tests
Don't be so proud
'Cause you're still so scared to be alone
And you can't change your mind

You won't embrace this
But you'll accept this
You can't let go

Broken stars
By a single shattered mirror
Seven years of trust
I know you'll never change for anyone
A gold heart never rusts

My mind's made up
And I'll know I'll do the right thing
Get up and stand tall
My mind's made up
Why am I scared I won't be able
To get up when I fall

We cast a single shadow for so long now
It's so hard to see the sun at all (the sun at all)
But you need light to see
the writing on the wall

Into the hole I've made
I'll place myself alone
I'll find the strength within myself
To climb out on my own, own!

My mind's made up
And I'll know I'll do the right thing
Get up and stand tall
My mind's made up
Why am I scared I won't be able
To get up when I fall

You!!
These broken stars
Cant be put back in the sky
I can still feel your scars!
I won't, I won't let them die!
We won't, we won't fade away!
And now I will set this all ablaze 

________________________________________________

4.

+++++++++++++++++++++++++++++++
| Silverstein- American Dream |
+++++++++++++++++++++++++++++++


"I'd go years without tears..."

Tuning: Drop C# (C#ADG)



Verse
"I've gone days without food..."
1.
G||------------------------------------------------------------|
D||------------------------------------------------------------|
A||---------2~-2222------------------------2~-2222-------------|
C#|-2~-2222---------0~-00000~-0000-2~-2222---------0~----5-4-0-|

"I've got cuts I cant close..."
2.
G||---------------------------------------------------------------|
D||---------------------------------------------------------------|
A||-------2~--------------------2~------------------222222-222222-|
C#|-2~----------0~--------2~----------000000-000000---------------|

"I've been shattered and wrecked..."
3.
G||--------------------------------------------------|
D||--------------------------------------------------|
A||-666666-222222--------444444-666666-222222--------|
C#|---------------000000----------------------000000-|

"I forgot how to feel..."
4.
G||---------------------------------------------------------|
D||---------------------------------------------------------|
A||-666666-222222--------444444-666666-222222---------------|
C#|---------------000000----------------------000000-000000-|

Chorus
"We get through this..."
5.
G||---------------------------------------------------------|
D||--------444444--------4-3--------------------------------|
A||-666666--------444444-----4--222222--------222222-444444-|
C#|------------------------------------555555---------------|

"We go through this..."
6.
G||---------------------------------------------------------|
D||--------444444--------4-3-----------444444---------------|
A||-666666--------444444-----4--222222--------444444-444444-|
C#|---------------------------------------------------------|

Verse
"Id go years without tears..."
7.
G||--------------------------------------------------|
D||--------------------------------------------------|
A||-666666-222222--------444444-666666-222222--------|
C#|---------------000000----------------------000000-|

"Now Im breaking my back..."
8.
G||-----------------------------------------------------------------------|
D||-----------------------------------------------------------------------|
A||-666666-222222--------444444-666666-222222-----------------------------|
C#|---------------000000----------------------000000-000000-000000-000000-|

Chorus
"We get through this..."
9.
G||---------------------------------------------------------|
D||--------444444--------4-3--------------------------------|
A||-666666--------444444-----4--222222--------222222-444444-|
C#|------------------------------------555555---------------|

"We go through this..."
10.
G||---------------------------------------------------------|
D||--------444444--------4-3-----------444444---------------|
A||-666666--------444444-----4--222222----------------------|
C#|-------------------------------------------000000-000000-|

Outro
"I've gone days without food..."
11.
G||-------------------------------------------------------|
D||-------------------------------------------------------|
A||--------222222----------------------222222-------------|
C#|-222222--------000000-000000-222222--------0~----5-4-0-|

"I've got cuts I cant close
12.
G||---------------------------------------------------------|
D||---------------------------------------------------------|
A||--------222222----------------------222222---------------|
C#|-222222--------000000-000000-222222--------000000-000000-|

Bridge
"My American dream..."
13.
G||---------------------------------------------------------|
D||---------------------------------------------------------|
A||-222222-222222-666666-444444-222222-222222---------------|
C#|-------------------------------------------2-2-2--0-0-0--|

"He wont leave her for this..."
14.
G||-----------------------------------------------------------------------|
D||-----------------------------------------------------------------------|
A||-222222-222222-666666-444444-222222-222222-----------------------------|
C#|-------------------------------------------000000-000000-000000-0x-----|

Chorus
"We get through this..."
15.
G||---------------------------------------------------------|
D||--------444444--------4-3--------------------------------|
A||-666666--------444444-----4--222222--------222222-444444-|
C#|------------------------------------555555---------------|

"We go through this..."
16.
G||---------------------------------------------------------|
D||--------444444--------4-3--------------------------------|
A||-666666--------444444-----4--222222----------------------|
C#|------------------------------------555555-000000-000000-|

"We get through this..."
17.
G||---------------------------------------------------------|
D||--------444444--------4-3--------------------------------|
A||-666666--------444444-----4--222222--------222222-444444-|
C#|------------------------------------555555---------------|

"We go through this..."
18.
G||---------------------------------------------------------|
D||--------444444--------4-3-----------444444---------------|
A||-666666--------444444-----4--222222----------------------|
C#|-------------------------------------------000000-000000-|

Outro
"This was not a test..."
19.
G||-------------------------------------------------------|
D||-------------------------------------------------------|
A||----------------------2~-------------------------2~----|
C#|-222020-222020-222020-----0-222020-222020-222020-----0-|

20.
G||--------------------------------------------------------------------------|
D||--------------------------------------------------------------------------|
A||----------------------2~-------------------------2~-22222~-22222~-2222----|
C#|-222020-222020-222020-----0-222020-222020-222020-----------------------2x-|


Lyrics:


It was on our wedding day
When my heart began to stray
Never thought I'd make such a big mistake
Throw my life away

I've gone days without food
I've went weeks without sleep
Keeping this in
I've got cuts I can't close
I've got wounds that won't heal
It's all your fault

I've been shattered and wrecked
My hands covered in blood
Scars on my skin
I forgot how to feel
Now I'm weak with deceit
My skin is paper thin

We get through this
Feeling it, keeping it, holdin' it in
We go through this 
Over and over again

I'd go years without tears
In a life with no fear
A life without you
Now I'm breaking my back as
I cover my tracks
My skin is paper thin once again

My American dream
Wasn't ever to lie, steal and cheat
He won't leave her for this
What's the point?
I wish they would die

This was not a test
This was all for real

_________________________________________________

5.

++++++++++++++++++++++++++++++++++++++
| Silverstein- Their Lips Sink Ships |
++++++++++++++++++++++++++++++++++++++


No bass ! :(


Lyrics:


Fly away, leave the bloody past behind your wings
Leave this burning house and break the curse
When you survive another day, another day

Fly away, leave the bloody past behind your wings 


______________________________________________________

6.

+++++++++++++++++++++++++++++++++++++++++++
| Silverstein- I Knew I Couldnt Trust You |
+++++++++++++++++++++++++++++++++++++++++++


"We're better off this way..."


Tuning: Drop C# (C#ADG)



Intro
"I knew I couldnt trust you..."
1.
G||--------------------------------------------------------------------------|
D||--------------------------------------------------------------------------|
A||-11111111----------------------------11111111-----------------------------|
C#|----------00000000-22222222-55555555----------00000000-44444444-4x--------|

Verse
"You're holding something in tonight..."
2.
G||---------------------------------------------------------------------|
D||---------------------------------------------------------------------|
A||-11-111-1---------11-111-1-------------111-1-------------------------|
C#|---------55-555-5---------55-544-4x---------00-000-022-222-222-22020-|

"Cross your arms..."
3.
G||---------------------------------------------------------------------|
D||---------------------------------------------------------------------|
A||-11-111-1---------11-111-1-------------111-1-------------------------|
C#|---------55-555-5---------55-544-4x---------00-000-022-222-22x-------|

"I've let you down..."
4.
G||-------------------------------------------------------------------------|
D||-------------------------------------------------------------------------|
A||-11111111-44444444-11111111----------11111111-44444444-------------------|
C#|----------------------------55555555-------------------44444444-42454202-|

"I promised you I'd..."
5.
G||-------------------------------------------------------------------------|
D||-------------------------------------------------------------------------|
A||-11111111-44444444-11111111----------11111111-44444444-------------------|
C#|----------------------------55555555-------------------44444444-4x-------|

Verse
"You're gonna bet it all..."
6.
G||---------------------------------------------------------------------|
D||---------------------------------------------------------------------|
A||-11-111-1---------11-111-1-------------111-1-------------------------|
C#|---------55-555-5---------55-544-4x---------00-000-022-222-222-22020-|

"And I could see through you..."
7.
G||---------------------------------------------------------------------|
D||---------------------------------------------------------------------|
A||-11-111-1---------11-111-1-------------111-1-------------------------|
C#|---------55-555-5---------55-544-4x---------00-000-022-222-22x-------|

Chorus
"I've let you down..."
8.
G||-------------------------------------------------------------------------|
D||-------------------------------------------------------------------------|
A||-11111111-44444444-11111111----------11111111-44444444-------------------|--x2
C#|----------------------------55555555-------------------44444444-42454202-|

Outro
"My loss, your gain..."
9.
G||-------------------------------------------------------------------------|
D||-------------------------------------------------------------------------|
A||-------------------------------------------------------------------------|
C#|-2222x----2222x----55555555-55555555-2222x----2222x----55555555-55555555-|

Bridge
"Hold in the pain..."
10.
G||-------------------------------------------------------------------------|
D||-------------------------------------------------------------------------|
A||-------------------------------------------------------------------------|--x2
C#|-22222222-22222222-55555555-55555555-00000000-00000000-55554444-22224444-|

"Friends are in vain..."
11.
G||--------------------------------------------------------------------------|
D||--------------------------------------------------------------------------|
A||--------------------------------------------------------------------------|
C#|-22222222-22222222-55555555-55555555-0~----------------5~--4~---2~--4~----|

12.
G||--------------------------------------------------------------|
D||--------------------------------------------------------------|
A||-1~-----------------------------------------------------------|
C#|--------------------------------------------------------------|

Chorus
"I knew I couldnt trust you..."
13.
G||--------------------------------------------------------------------------|
D||--------------------------------------------------------------------------|
A||-11111111----------------------------11111111-----------------------------|
C#|----------00000000-22222222-55555555----------00000000-44444444-4x--------|

"I've let you down..."
14.
G||-------------------------------------------------------------------------|
D||-------------------------------------------------------------------------|
A||-11111111-44444444-11111111----------11111111-44444444-------------------|
C#|----------------------------55555555-------------------44444444-42454202-|

"I promised you I'd..."
15.
G||-------------------------------------------------------------------------|
D||-------------------------------------------------------------------------|
A||-11111111-44444444-11111111----------11111111-44444444-------------------|
C#|----------------------------55555555-------------------44444444-4x-------|

Outro
16.
G||--------------------|
D||--------------------|
A||-1~x----------------|
C#|--------------------|


Lyrics:

I knew I couldn't trust you back when we were kids.
You sold me out, you ran and hid 
from all your problems. Can't even face your friends, 
your best friend.

You're holding something in tonight
and I can tell you're not alright.
Your poker face concealing
All the cards that you're not dealing.
Cross your arms, avert your eyes;
you're like a child ashamed to cry.
The words inside your head,
when I find out you'll wish you said:

"I've let you down 
so many times but I can't ever tell you this,
there is no forgiving it.
I promised you I'd 
always be there but that couldn't be less true.
It's the worst thing I could do."

You're gonna bet it all on black 
and when it's gone you'll want it back.
'Cause truth don't mix with reason 
and cheating's the ultimate treason.
And I could see through you like glass,
slither around below the grass
Garden of Eden burning, 
forbidden fruit you won't discern it.

My loss, your gain, 
it didn't have to be this way.
Across your face, 
it's so legible.

Hold in the pain, 
were better off this way.
We don't abstain, 
we're better off this way.
Friends are in vain; 
we're better off this way.
Better off this way.

____________________________________________________________

7.

++++++++++++++++++++++++++
| Silverstein- Born Dead |
++++++++++++++++++++++++++


"We are all sheep..."


Tuning: Half a Step Down (EbADG)



Intro
1.
G||-----------------------------------|
D||-----------------------------------|
A||-------------------------1~--------|
Eb|-0-0x----0-0x----0-0x--------------|

2.
G||---------------------------------------------------------------------|
D||---------------------------------------------------------------------|
A||-------------------------11-111-1----------------------------1111111-|
Eb|-00-000-033-333-355-555-5--------00-000-033-333-3---5555555----------|

3.
G||------------------------------------------------------------------|
D||------------------------------------------------------------------|
A||-------------------------11-111-1-------------------------1-1-1-1-|
Eb|-00-000-033-333-355-555-5--------00-000-033-333-3-5-5-5-5---------|

4.
G||--------------|
D||--------------|
A||--------------|
Eb|-0~--------0x-|

Verse
"You call this a privilege..."
5.
G||-------------------------------------------------------------------|
D||-------------------------------------------------------------------|
A||-------------------------11111111-------------------------11111111-|
Eb|-000x----333x----555x-------------000x----333x----555x-------------|

Pre-Chorus
"So sit behind your desk..."
6.
G||-----------4--------------------------------4----------------------|
D||---4-----66--666---------44-433-3---4-----66--666------------------|
A||-66--666---------444-444----------66--666---------444-444----------|
Eb|----------------------------------------------------------33-322-2-|

Chorus
"We keep on suffering everyday..."
7.
G||------------------------------------------------------------------------|
D||------------------------------------------------------------------------|
A||-22-222-2----44-422-222-2-----1-111-22-222-2----44-4-22-222-2-----1-111-|
Eb|---------00-0-------------3-5---------------00-0--------------3-5-------|

"Dead and rotting bodies..."
8.
G||-------------------------------------------------------------------|
D||-------------------------------------------------------------------|
A||-------------------------11111111-------------------------11111111-|
Eb|-000x----333x----555x-------------000x----333x----555x-------------|

Pre-Chorus
"So flex your muscle..."
9.
G||-----------4--------------------------------4----------------------|
D||---4-----66--666---------44-433-3---4-----66--666------------------|
A||-66--666---------444-444----------66--666---------444-444----------|
Eb|----------------------------------------------------------33-322-2-|

Chorus
"We keep on suffering everyday..."
10.
G||----------------------------------------------------------------------------------------------|
D||----------------------------------------------------------------------------------------------|
A||-22-222-2----44-422-222-2-----1-111-22-222-2----44-4-22-222-2-----1-111-----1-111-----1-111-1x|
Eb|---------00-0-------------3-5---------------00-0--------------3-5-------3-5-------3-5---------|

Bridge
"Dead!"
11.
G||-----------------------------------------------------------------------------|
D||-------------------3h4-4h6p4-3h4p3-----------------------3h4-4h6p4-3h4p3-----|
A||------4h6-44~-2-22-----------------4h6------4h6-44~-2-22-----------------4h6-|
Eb|-0-00----------------------------------0-00----------------------------------|

"We cant escape this..."
12.
G||-----------------------------------------------------------------------------|
D||-------------------3h4-6h8p6-4h6p4-3h4-------------------3h4-6h8p6-4h6p4-3h4-|
A||------4h6-44~-2-22--------------------------4h6-44~-2-22---------------------|
Eb|-0-00----------------------------------0-00----------------------------------|

13.
G||--------------------------------------------------------|
D||--------------------------------------------------------|
A||----------------------------------------------22x-1~----|
Eb|-0x----00x--0x------00x--0x--0x----00x--0x--------------|

14.
G||----------------------------------------------------|
D||----------------------------------------------------|
A||----------------------------------------------------|
Eb|-0x----00x--0x------00x--0x--0x----00x--0x----33-22-|

Chorus
"We keep on suffering everyday..."
15.
G||------------------------------------------------------------------------|
D||------------------------------------------------------------------------|
A||-----------------22-222-2-----1-111-22-222-2----44-4-22-222-2-----1-111-|
Eb|--------------------------3-5---------------00-0--------------3-5-------|

"We keep on suffering everyday..."
16.
G||---------------------------------------------------------------------------------------------|
D||---------------------------------------------------------------------------------------------|
A||-22-222-2----44-422-222-2-----1-111-22-222-2----44-4-22-222-2-----1-111-----1-111-----1-111--|
Eb|---------00-0-------------3-5---------------00-0--------------3-5-------3-5-------3-5--------|

Outro
17.
G||---------------------------------------------------------------------|
D||---------------------------------------------------------------------|
A||-------------------------11-111-1----------------------------1111111-|
Eb|-00-000-033-333-355-555-5--------00-000-033-333-3---5555555----------|

18.
G||------------------------------------------------------------------|
D||------------------------------------------------------------------|
A||-------------------------11-111-1-------------------------1-1-1-1-|
Eb|-00-000-033-333-355-555-5--------00-000-033-333-3-5-5-5-5---------|

19.
G||------------|
D||------------|
A||------------|
Eb|-0-0x----0x-|


Lyrics:

You call this a privilege
No, I call it a right
There's no respect for life
No compromising
Coverage denied 

So sit behind your desk and tell me how I'm supposed to feel inside
You know I'm slowly dying, how long I have left is for you to decide

We keep on suffering everyday
We're victims of opportunity
One nation under God, they said
We are all born dead

Dead and rotting bodies fill the 
Fields in the east
There's no respect for life, it never stops
Is this what makes us free?

So flex your muscle as you barricade the whole world piece by piece
How long until the ocean overflows into our yards and streets?

We are all pawns, we are all sheep, we are all born dead 

We can't escape this
Until we unify as one
I'll fight the sickness
Until my time has come


________________________________________________________________________

8.

++++++++++++++++++++++++++++++++++++++++
| Silverstein- A Shipwreck In The Sand |
++++++++++++++++++++++++++++++++++++++++


"Follow your dreams..."


Tuning: Drop C# (C#ADG)



Intro
"This vessel was to venture..."
1.
G||----------------------------------------------------------------------------|
D||----------------------------------------------------------------------------|
A||----------------------------------------------------------------------------|
C#|--------------------------5~--5-55~--5-55~--5-55~--0~--0-00~--0-00~--0-00~--|

"As time passed by..."
2.
G||----------------------------------------------------------------------------|
D||----------------------------------------------------------------------------|
A||----------------------------------------------------------------------------|
C#|-7~--7-77~--7-77~--7-77~--5~--5-55~--5-55~--5-55~--0~--0-00~--0-00~--0-00~--|

Verse
"You crossed the line..."
3.
G||-------------------------------------------------------------------------|
D||-------------------------------------------------------------------------|
A||-------------------------------------------------------------------------|
C#|-777x--777x--77x---777x--777x--77x---333x--333x--33x---333x--333x--33x---|

"And everyone should take the lead..."
4.
G||-------------------------------------------------------------------------|
D||-------------------------------------------------------------------------|
A||-------------------------------------------------------------------------|
C#|-000x--000x--00x---000x--000x--00x---333x--333x--33x---333x--333x--33x---|

"As the mutiny started..."
5.
G||-------------------------------------------------------|
D||-------------------------------------------------------|
A||-------------------22224444-------------------44442222-|
C#|-7~--7-77~--7-77~-----------3~--3-33~--3-33~-----------|

6.
G||----------------------------------------------------|
D||----------------------------------------------------|
A||----------------------------------------------------|
C#|-0~--0-00~--0-00~--0-00~--3~--3-33~--3-33~--3-33~---|

Verse
"You've lost your minds..."
7.
G||-------------------------------------------------------------------------|
D||-------------------------------------------------------------------------|
A||-------------------------------------------------------------------------|
C#|-777x--777x--77x---777x--777x--77x---333x--333x--33x---333x--333x--33x---|

"And even if they disagree..."
8.
G||--------------------------------------------------------------------------|
D||--------------------------------------------------------------------------|
A||--------------------------------------------------------------------------|
C#|-000x--000x--00x---000x--000x--00x---777x--777x--77x---77777777-77777777--|

9.
G||---------------------------------------------------------------------|
D||---------------------------------------------------------------------|
A||---------------------------------------------------------------------|--x6
C#|-33333~-333~-333~-55555~-555~-555~-77777~-777~-777~-77777~-777~-777~-|

"This union..."
10.
G||-------------------------------------------------------------------------|
D||-------------------------------------------------------------------------|
A||-------------------------------------------------------------------------|
C#|-33333333-33333333-55555555-55555555-77777777-77777777-77777777-77777777-|

Outro
11.
G||-------------------|
D||-------------------|
A||-------------------|
C#|-0~----------------|


Lyrics:

Once upon a time
Before the lakes and rivers were polluted
Before the animals were poached to extinction
And before man had destroyed the earth's atmosphere
There was a great ship.

This vessel was to venture into new waters
To find new resources, to make life easier and more enjoyable.

It was a simple mission for the crew
Who were excited to be a part of this union
They pledged their allegiance to the captain
And vowed to be there no matter what
In sickness, health, and possible death

As time passed by, there was no new land to be found
As the days grew shorter
And the nights grew longer and colder
The crew became more and more skeptical about the captain's vision
Originally passionate and committed true and faithful
They now began to revolt.

You crossed the line
I was honest
I never promised anything
Just a brotherhood to stand for something
And everyone should take the lead
Follow your dreams
If you don't try, you fail

As the mutiny started and the captain was overthrown and chained
He asked them why their minds had changed
There's no gold to be found, no treasure in the ground
We won't die for this
We won't die for you

You've lost your minds
I was honest
I never promised anything
Just a brotherhood to stand for something
And even if they disagree
Follow your dreams
If you don't try, you fail.

This dream is now
A shipwreck in the sand
They gave up, they made all their demands
The storm consumed fifty seven souls
Who died in vain, his love they stole

This union, a battle fought and lost
This union is not about the cause
This union was never about love

_________________________________________________________________________

9.

++++++++++++++++++++++++++++++++++
| Silverstein- I Am The Arsonist |
++++++++++++++++++++++++++++++++++


"I am the one that never lets you down..." 


Tuning: Drop C# (C#ADG)



Intro
1.
G||----------------------------------------------|
D||----------------------------------------------|
A||----------------------------------------------|
C#|-0x----------------0~---------0-0-0-0-0-0-0-0-|

2.
G||---------112211----------------------------112211--------------------|
D||---------------22---22--22--44--66---------------22---22--22--44--66-|
A||---446~-----------00--00--22--33-----446~-----------00--00--22--33---|
C#|-00----00--------------------------00----00--------------------------|

Verse
"Throwing up with the thoughts..."
3.
G||---------------------------------------------------------------------------------|
D||---------------------------------------------------------------------------------|
A||-----------00x--00x-----------------00x------------00x--00x-----------------00x--|
C#|-00x--00x------------55x--77x--55x-------00x--00x------------55x--77x--55x-------|

Chorus
"They'll see your fire..."
4.
G||-------------------------------------------------------------------------|
D||------------------------------------------------------------------44--66-|
A||--------0-00000000----------------------------------------------22--33---|
C#|-0-0000------------555555-7777777777-3-3333-5-55555555-00000000----------|

"If there's a pyre..."
5.
G||---------------------------------------------------------------------|
D||---------------------------------------------------------------------|
A||--------0-00000000-------------------------------------4~-3~---------|
C#|-0-0000------------555555-7777777777-3-3333-5-55555555-------0~------|

Outro
"Burn!" 
6.
G||---------112211----------------------------112211--------------------|
D||---------------22---22--22--44--66---------------22---22--22--44--66-|
A||---446~-----------00--00--22--33-----446~-----------00--00--22--33---|
C#|-00----00--------------------------00----00--------------------------|

Verse
"Gasoline and fire..."
7.
G||---------------------------------------------------------------------------------|
D||---------------------------------------------------------------------------------|
A||-----------00x--00x-----------------00x------------00x--00x-----------------00x--|
C#|-00x--00x------------55x--77x--55x-------00x--00x------------55x--77x--55x-------|

Chorus
"They'll see your fire..."
8.
G||-------------------------------------------------------------------------|
D||------------------------------------------------------------------44--66-|
A||--------0-00000000----------------------------------------------22--33---|
C#|-0-0000------------555555-7777777777-3-3333-5-55555555-00000000----------|

"If there's a pyre..."
9.
G||---------------------------------------------------------------------|
D||---------------------------------------------------------------------|
A||--------0-00000000-------------------------------------4~-3~---------|
C#|-0-0000------------555555-7777777777-3-3333-5-55555555-------0~------|

Outro
10.
G||----------------------------------------------------------------------------|
D||----------------------------------------------------------------------------|
A||---------------------000x-000x-000x-000x------------------------------------|
C#|-000x-000x-000x-000x---------------------5555x----5555x----33333333-5322----|

Bridge
"I am the light..." 
11.
G||----------------------------------------------------------------------------|
D||----------------------------------------------------------------------------|
A||---------------------000x-000x-000x-000x------------------------------------|--x2
C#|-000x-000x-000x-000x---------------------5555x----5555x----33333333-5322----|

12.
G||-----------------------------------------------------------------|
D||-----------------------------------------------------------------|
A||-----------------------------------------------------------------|
C#|-0000x-0000x----0000x-0000x----0000x-0000x----0000x-0000x----12\-|

"They'll suspect..." 
13.
G||-------------------------------------------------------------|
D||-------------------------------------------------------------|
A||----------------0000x-0000x----------------------------------|--x4
C#|-0000x-0000x-------------------5555x-5555x----3333x-2222x----|

Outro
"Down..."
14.
G||-------------------------|
D||-------------------------|
A||-------------------------|
C#|-12\-0-0~----------------|



Lyrics:

Throwing up with the thought of you two,
How could you do this?
My best friend with my bride,
Now you tell me you are leaving.

They'll see your fire through the dark night sky
I hope you're home when I arrive.
If there's a pyre in the afterlife,
I'll be there again to light the match.

Burn!!!

Gasoline and fire is the perfect combination
Light it up,
Burn it down,
Burning my addiction.

I am the light that warms up your body and sets free the demons inside.
I am the one that never ignores you, that never will let you down.

They'll suspect, but they'll never prove I was there
In my fate, I feel the wrath of adrenaline
It's so hard to run away, when I want to stay
To watch it burn, watch it churn,


___________________________________________________________________________

10.

++++++++++++++++++++++++++++++++++
| Silverstein- You're All I Have |
++++++++++++++++++++++++++++++++++


"Sunlights creeping through the blinds..."



Tuning: HalfStep Down (EbADG)


Intro
1.
G||-----------------------------------------|
D||-----------------------------------------|
A||-77~---7-7-----------22~---2-2-----------|
Eb|-----------55~---5-5-----------33~---333-|

Verse
"I wake up in the afternoon..."
2.
G||---------------------------------------------------------------------------------|
D||---------------------------------------------------------------------------------|
A||-77~---7-7-----------22~---2-2-----------77~---7-7-----------22~---2-2-----------|--x2
Eb|-----------55~---5-5-----------33~---333-----------55~---5-5-----------33~---333-|

Pre-Chorus
"Dont pretend you're not the one who's wrong..."
3.
G||-------------------|
D||-------------------|
A||-------------------|
Eb|-00011133-33333333-|

Chorus
"You're keeping me sane..."
4.
G||----------------------------------------------------------------------------|
D||----------------------------------------------------------------------------|
A||---------------------------2x-----------------------------------------------|
Eb|-55535313x--1111111-5553535----1111111-55535313x--1111111-00011133-3333x----|

Verse
"Sunlight's creeping through the blinds.."
5.
G||---------------------------------------------------------------------------------|
D||---------------------------------------------------------------------------------|
A||-77~---7-7-----------22~---2-2-----------77~---7-7-----------22~---2-2-----------|--x2
Eb|-----------55~---5-5-----------33~---333-----------55~---5-5-----------33~---333-|

Pre-Chorus
"Dont pretend you're not the one who's wrong..."
6.
G||-------------------|
D||-------------------|
A||-------------------|
Eb|-00011133-33333333-|

Chorus
"You're keeping me sane..."
7.
G||----------------------------------------------------------------------------|
D||----------------------------------------------------------------------------|
A||---------------------------2x-----------------------------------------------|
Eb|-55535313x--1111111-5553535----1111111-55535313x--1111111-00011133-3333x----|

Bridge
8.
G||---------------------------------------------|
D||---------------------------------------------|
A||-7777-7h9p7x---------0-2222-2h4p2x---------6-|--x2
Eb|--------------5555555---------------3333358--|

"You're all I have..."
9.
G||---------------------------------------------|
D||---------------------------------------------|
A||-7777-7h9p7x---------0-2222-2h4p2x---------6-|--x2
Eb|--------------5555555---------------3333358--|

"Push me down and walk forsaken..."
10.
G||-11/13~----8h9p8-------6~----6h8p6-4~----|
D||-----------------9~----------------------|
A||-----------------------------------------|--x2
Eb|-----------------------------------------|

"Dont you pretend..."
11.
G||-----------------------------------------------------------|
D||-----------------------------------------------------------|
A||-------------------------------------------------------11\-| The last one is an eleven
Eb|-55x----33x----11x----11x----55x----33x----11x----11x------| the others are 1s

"Dont pretend..."
12.
G||-------------------------------------------------------------------|
D||-------------------------------------------------------------------|
A||-------------------------------------------------------------------|
Eb|-55x----533x----311x----111x----155x----533x----311x----111x--00x--|

Pre-Chorus
"Dont pretend"
13.
G||-------------------|
D||-------------------|
A||-------------------|
Eb|-00011133-33333333-|

Chorus
"You're keeping me sane..."
14.
G||----------------------------------------------------------------------------|
D||----------------------------------------------------------------------------|
A||---------------------------2x-----------------------------------------------|
Eb|-55535313x--1111111-5553535----1111111-55535313x--1111111-00011133-33333333-|

Outro
"Dont you pretend..."
15.
G||-------------------------------------------------------------|
D||-------------------------------------------------------------|
A||-------------------------------------------------------------|
Eb|-11x----33x----55x------5555353-11x----33x----55x----5555353-|

"You're keeping me sane..."
16.
G||-------------------------------------------------------------|
D||-------------------------------------------------------------|
A||-------------------------------------------------------------|
Eb|-11x----33x----55x------5555353-11x----33x----55x----5555353-|

"Dont pretend you're not the one who's wrong..." 
17.
G||------------------|
D||------------------|
A||------------------|
Eb|-5x---------------|



Lyrics:

I wake up in the afternoon
Empty walls make up the room
And I'm wishing for one thing
To give myself the strength
to keep myself alive
Long enough to make sure you don't try
To turn out anything like me
Another fraud, another fake

Don't pretend, you're not the one who's wrong
You're keeping me sane, when I'm feeling alone
I wield my heart and my flesh'n'bones
Don't leave me to die by myself
I can't live without you.

Sunlights creeping through the blinds
Calling me from these confines
there's only so many more days
Until you're cast away
From ever seeing me
They won't understand they'll never see
The way you medicate my head
Without you here, I'm left for dead

Without you here

You're all I have
In a world that judges long before it sees.
You're all I have
In a place that hates me and only wants to
Push me down and walk forsaken
Pass the point and then you'll break me
I won't be fine you're all mistaken
Don't pretend you're not the one who's wrong

Don't you pretend
It's gonna be okay
Don't lie, and say
It's better off this way

_________________________________________________________

11.

+++++++++++++++++++++++++++++++++++++
| Silverstein- We Are Not The World |
+++++++++++++++++++++++++++++++++++++


"Just another extra in your play, the fool..."


Tuning: Drop D (DADG)


Chorus
"I've always been your favorite game..."
1.
G|----------------------------------------------------------------------|
D|----------------------------------------------------------------------|
A|----------------------------------------------------------------------|
D|-4-444444-2-2-2-2-4-444444-2-2-2-2-4-444444-2-2-2-2-0-00000-2-2222222-|

Outro
2.
G|------------------|
D|------------------|
A|------------------|
D|-4~---------------|

Verse
"Turn on, tune in..."
3.
G|-------------------------------------------------------------------------|
D|-------------------------------------------------------------------------|
A|-5~----4~----------------------------5~----4~----------------------------|
D|-------------444-2h444-2h444-2h444-2-------------444-2h444-2h444-2h444-2-|

"Your charismatic lies make tears run down their cheeks..."
4.
G-----------------------------------------------------------------------------------------------|
D-----------------------------------------------------------------------------------------------|
A5~--7-4~--2-------------------------5~--7-4~--2------------------------------------------------|
D------------444-2h444-2h444-2h444-2-------------444-2h444-2h444-2h444-2h444-2h444-2h444-2h444-2|

Pre-Chorus
"And now you've taken her away..."
5.
G|-----------------------|
D|-----------------------|
A|-2~--------7~----------|
D|-----------------2~----|

Chorus
"I've always been your favorite game..."
6.
G|----------------------------------------------------------------------|
D|----------------------------------------------------------------------|
A|----------------------------------------------------------------------|
D|-4-444444-2-2-2-2-4-444444-2-2-2-2-4-444444-2-2-2-2-0-00000-2-2222222-|

Outro
7.
G|-------------------|
D|-------------------|
A|-------------------|
D|-44444444-44444444-|

Verse
"Pull out the pin..."
8.
G|-------------------------------------------------------------------------|
D|-------------------------------------------------------------------------|
A|-5~----4~----------------------------5~----4~----------------------------|
D|-------------444-2h444-2h444-2h444-2-------------444-2h444-2h444-2h444-2-|

"We fight for billionaires..."
9.
G-----------------------------------------------------------------------------------------------|
D-----------------------------------------------------------------------------------------------|
A5~--7-4~--2-------------------------5~--7-4~--2------------------------------------------------|
D------------444-2h444-2h444-2h444-2-------------444-2h444-2h444-2h444-2h444-2h444-2h444-2h444-2|

Pre-Chorus
"And now they take your life away..."
10.
G|-----------------------|
D|-----------------------|
A|-2~--------7~----------|
D|-----------------2~----|

Chorus
"I've always been your favorite game..."
11.
G|----------------------------------------------------------------------|
D|----------------------------------------------------------------------|
A|----------------------------------------------------------------------|--x2
D|-4-444444-2-2-2-2-4-444444-2-2-2-2-4-444444-2-2-2-2-0-00000-2-2222222-|

Bridge
"And now that war..."
12.
G|------------------------------------------------------------|
D|------------------------------------------------------------|
A|------------------------------------------------------------|
D|-0~-00~-000-0~-2~-22~-222-2~-4~-44~-444-4~-4-44~-4-33333333-|

"We've come too far..."
13.
G|-------------------------------------------------------------------------------|
D|-------------------------------------------------------------------------------|
A|-----------------------------0~------------------------------4-4-4-4-4~--------|
D|-0~-00~-000-0~-2~-22~-222-2~-----6~--4~--2~--0-0-0-0-0-0-0-0-------------------|

Chorus
"I've always been your favorite game..."
14.
G|----------------------------------------------------------------------|
D|----------------------------------------------------------------------|
A|----------------------------------------------------------------------|
D|--------------------------------------------2-2-2-2-0-00000-2-2222222-|

"I've always been your favorite game..."
15.
G|----------------------------------------------------------------------|
D|----------------------------------------------------------------------|
A|---------------------------------------------------------------00200--|
D|-4-444444-2-2-2-2-4-444444-2-2-2-2-4-444444-2-2-2-2-0-00000-2-2-----2-|

"In your play..."
16.
G|---------------------------------------------------------------|
D|---------------------------------------------------------------|
A|------------00200----------4-42200-----------------------------|
D|-0-00000-2-2-----2-0-00000--------22-4-4x--2-4x----------------|



Lyrics:

I've always been your favorite game
And all the world's your spot lit stage
I'm just another extra in your play, the fool

(Turn on, tune in)
I'm ready for your drama
(Tape up, weigh in)
You're throwing every hook tonight
Your charismatic lies make tears run down their cheeks
(Run down their cheeks)
I've lost the only thing I need
Here's to the plaintiff
And now you've taken her away

I've always been your favorite game
And all the world's your spot lit stage
Just another extra in your play, your fool

(Pull out the pin)
I'm falling on the grenade now
(Don't shoot, don't shoot)
I'm just a kid like you
We fight for billionaires who bomb our city streets
(Armed to the teeth)
Divide the youth for corporate greed
Here's to the propaganda
And now they take your life away

And now that war has been declared,
How long until bombs burst in air?
We've come too far
Just to let this die, to throw this away

I've always been your favorite game
And all the world's your sparkling stage
Just another extra in your play

______________________________________________________________________

12.

++++++++++++++++++++++++++++++++++++++
| Silverstein- A Hero Loses Everyday |
++++++++++++++++++++++++++++++++++++++


"I'll be long gone..."


Tuning: Drop D (DADG)


Verse
"Hey! They keep asking me..."
1.
G|-------------------------------------------------|
D|-------------------------------------------------|
A|-------------------------------------------------|
D|-11-11-22-22-11-11-22-22-11-11-22-22-11-11-22-22-|

"There's no trying to explain..."
2.
G|---------------------------------------------------------------------------------------|
D|---------------------------------------------------------------------------------------|
A|---------------------------------------------------------------------------------------|--x2
D|-222222-2~--22-22-2-2-2-666666-6~--66-66-6-6-6-11-11-11-1x--------4~--4444444-44444444-|

"Hey! I've lost everything..."
3.
G|-------------------------------------------------|
D|-------------------------------------------------|
A|-------------------------------------------------|--x2
D|-11-11-22-22-11-11-22-22-11-11-22-22-11-11-22-22-|

"There's no trying to explain..."
4.
G|---------------------------------------------------------------------------------------|
D|---------------------------------------------------------------------------------------|
A|---------------------------------------------------------------------------------------|
D|-222222-2~--22-22-2-2-2-666666-6~--66-66-6-6-6-11-11-11-1x--------4~--4444444-44444444-|

Chorus
"Hey! When tomorrow brings..."
5.
G|----------------------------------------------------------------------------|
D|-----------------------------------------------------1----------------------|
A|---------2-2222222---------------------------2-222222-----------------------|--x2
D|-2-22222-----------4-444444-444444h6-2-22222-----------4-444444-444-4h6-4h6-|

Outro
6.
G|-----------------------------------------------------------------------------------------------|
D|-----------------------------------------------------------------------------------------------|
A|-----------------------------------------------------------------------------------------------|
D|-2x----------------66x--------222x--------66x--------2222x--------66x--------22222222-22222222-|

Bridge
"Karma is hard to change..."
7.
G|-------------------------------------------------------------------------|
D|-------------------------------------------------------------------------|
A|--------------------------------------------------2222-------------------|--x2
D|-66666666-66661111-22222222-22224444-66666666-6666-----22222222-22224444-|

Pre-Chorus
"Im coughing up more blood..."
8.
G|----------------------------------------------------------------|
D|----------------------------------------------------------------|
A|----------------------------------------------------------------|
D|-222222-2~--------666666-6~--------11-11-11-1x--------4~--------|

Chorus
"Hey! When tomorrow brings..."
9.
G|----------------------------------------------------------------------------|
D|-----------------------------------------------------1----------------------|
A|---------2-2222222---------------------------2-222222-----------------------|--x2
D|-2-22222-----------4-444444-444444h6-2-22222-----------4-444444-444-4h6-4h6-|

Outro
"Hey! I've lost everything!"
10.
G|-------------------------------------------------|
D|-------------------------------------------------|
A|-------------------------------------------------|
D|-11-11-22-22-11-11-22-22-11-11-22-22-11-11-22-22-|

"Hey! Its not that surprising..."
11.
G|---------------------------------------------------------------|
D|---------------------------------------------------------------|
A|---------------------------------------------------------------|
D|-11-11-22-22-11-11-22-22-111111-222222-111111-22x--222x--------|


Lyrics:

Hey!
I've lost everything.
Now I've gotta find a way out.

Hey!
They keep asking me where I was when it was burning
There's no trying to explain.
They'll lock me up again.
Throw away the key.

The protagonist became the villain they disdain in every way

Hey!
Nothing's left for me expect malady and hatred
No evidence was found
They'll let me go for now
At least 'til tomorrow

And Hey!
When tomorrow brings the morning sun again
I'll be long gone
Now
As I drive away and leave the past behind
I think I'm dying.

It's so pathetic
I hate you so much but I still miss you.
Karma is hard to change
When everything you do and say is awful
Remorse is hard to fake
When you only feel sorry for yourself

I'm coughing up more blood
It's filling up my lungs.
It's killing me.

Hey! 
I've lost everything
Now! 
I've succumbed to grace
Hey! 
It's not that surprising
A hero loses everyday 

__________________________________________________________________

13.

+++++++++++++++++++++++++++++++++++++++++++
| Silverstein- The Tide Raises Every Ship |
+++++++++++++++++++++++++++++++++++++++++++


No Bass!


Lyrics:


Fire burns in me.


____________________________________________________________________

14.

++++++++++++++++++++++++
| Silverstein- The End |
++++++++++++++++++++++++


"You promised me the moon and stars..."


Tuning: EADG



2:01
Chorus
"And I knew you could never love me..."
1.
G|---------------------------------------------------------------|
D|------------------------------------------------------2~-1~----|
A|------------------------------------------------------------2~-|
E|-4-44444x--------7-77777x--------0-00000~-00000~-0000----------|

"I had so much sorrow inside..."
2.
G|---------------------------------------------------------------|
D|------------------------------------------------------4~-2~----|
A|------------------------------------------------------------2~-|
E|-4-44444x--------7-77777x--------0-00000~-00000~-0000----------|

"But can I still keep..."
3.
G|---------------------------------------------------------------|
D|------------------------------------------------------1~-2~-1~-|
A|---------------------------------------------------------------|
E|-4-44444x--------7-77777x--------0-00000~-00000~-0000----------|

"A place in your heart..."
4.
G|---------------------------------------------------------------|
D|---------------------------------------------------------------|
A|---------------------------------------------------------------|
E|-4-44444x--------7-77777x--------0-00000~-00000~---------------|

Bridge
"I didnt want to save you..."
5.
G|-------------------------------------------------|
D|-------------------------------------------------|
A|-------------------------------------------------|--x2
E|-4~-4~-4~-4~-2~-2~-2~-2~-0~-0~-0~-0~-0~-0~-0~-0~-|

Chorus
"And I knew you could never love me..."
6.
G|---------------------------------------------------------------|
D|------------------------------------------------------2~-1~----|
A|------------------------------------------------------------2~-|
E|-4-44444x--------7-77777x--------0-00000~-00000~-0000----------|

"I had so much sorrow inside..."
7.
G|---------------------------------------------------------------|
D|------------------------------------------------------4~-2~----|
A|------------------------------------------------------------2~-|
E|-4-44444x--------7-77777x--------0-00000~-00000~-0000----------|

"But Ill ask you this..."
8.
G|---------------------------------------------------------------|
D|------------------------------------------------------1~-2~-1~-|
A|---------------------------------------------------------------|
E|-4-44444x--------7-77777x--------0-00000~-00000~-0000----------|

"Will you still miss..."
9.
G|---------------------------------------------------------------------------------|
D|---------------------------------------------------------------------------------|
A|---------------------------------------------------------------------------------|
E|-4-44444x--------7-77777x--------0-0-0-0-0-0-0-0-0-0-0-0-0-0-0-0-0-0-0-0-0-0-0-0-|

Outro
"Planes fill the sky..."
10.
G|------------------------------------------------------------------------------------------------|
D|------------------------------------------------------------------------------------------------|
A|-4-44444-444-4-44444-444-2-22222-222-2-22222x----0-00000-000-0-00000-000------------------------|
E|-------------------------------------------------------------------------0-00000-000-0-00000-000|
x2

"Woah..."     for a million times
11.
G|-----------------------------------------------------------------------------------------------|
D|--------------------21-------------------------------------------------------------------------|
A|4-44444-444-4-44444---4-2-22222-222-2-22222x----0-00000-000-0-00000-000------------------------|
E|------------------------------------------------------------------------0-00000-000-0-00000-000|

5:44
12.
G|-----------------------------------------------------------------------------------------------|
D|--------------------21-------------------------------------------------------------------------|
A|4-44444-444-4-44444---4-2-22222-222-2-22222x----0-00000-000-0-00000-000-0-00000-000-0-00000-000|
E|-----------------------------------------------------------------------------------------------|

13. 
G|------------------|  This could be one octave lower if you want,
D|------------------|  but I didnt wanna change the tuning
A|-4~---------------|  of the whole bass line, its up to you ;)
E|------------------|


Lyrics:

The first time we met
Your face became etched
In my mind

You were the sun
I was the one
Who worshiped you.
My hands were your guns
Your eyes were my muse.

And I knew you could never love me
I had so much sorrow inside
You could never reach
But can I still keep
A place in your heart?

You broke my heart
You promised me the moon and stars
I fell for your dreams. I fell for your lies
There was no other way 
You know I tried

There is something
I want you to know
I think you know exactly what it is
I didn't want to save you
I didn't want to save you
I set our house on fire
To watch it burn
But I couldn't just leave you there

And I knew you could never love me
I had so much sorrow inside
You could never reach
But I'll ask you this

Will you still miss me?
(Yes I'll miss you)
Do you love me?
(Yes I love you)

Planes fill the sky
We'll both die tonight
We'll both die tonight
Hands from the sky
Swat us away like flies
As we follow the light

We'll both die tonight

This union, a battle fought and lost
This union was not about the cause
This union was never about love 


_____________________________________________________


I hope you enjoyed!
please rate !
see you soon


+++++++++++++++++++++++++++++++++
| Raileff                       |
| Underground__Dora@Hotmail.Com |
+++++++++++++++++++++++++++++++++
comments
We did not receive enough feedback on this tab! Please rate:
print report bad tab
1 2 3 4 5
1 comment total.
0 reply
TommyGun91 wrote on February 23 2012, 09:42 am

Nice one dude. Sounds pretty much perfect to me :)

I want to post or [tab]
guest
You may want to rate the tab now too:
select rating
Please do not post tabs as comments. Select "correction" instead!