Oops, an error
Loading. Please wait.

A Shipwreck In The Sand Tab

3,756 views 1 this week
2 commentsread comments
1 2 3 4 5
excellent!
x 6
add to favorites
launch autoscroll
font size
0
reset
Autoscroll
+/-
esc
set tempo
stop
Contributor
Difficulty
Tuning
intermediate
C# G# C# F# A# D#
WARNING: You are trying to view
                                    content from Ultimate-Guitar.com
                                    in an unauthorized application,
                                    which is prohibited.

                                    Please use an official Ultimate
                                    Guitar Tabs application for iPhone,
                                    iPad or Android to access legitimate
                                    chords, guitar, bass, and drum tabs
                                    from Ultimate-Guitar.com database.

                                    Type "ultimate guitar tabs" in Apple
                                    App Store's or Android Market's
                                    search to find the application.
Tabbed by: Joshua Garcia (joshuag523@@aol.com)

Tabs for the song: A Shipwreck In the Sand by Silverstein
Please rate and let me know if you have any corrections. Thank you.


Tuning: Drop C# (C# G# C# F# A# D#)


Intro
Guitar 1:
D#||-----------------------------------------------------------------------|
A#||-----------------------------------------------------------------------|
F#||-------9------9-----------7-----7---------5-----5---------5-----5------|
C#||----10-----10-----10----9-----9-----9---7-----7-----7---7-----7-----7--|
G#||-----------------------------------------------------------------------|
C#||--7------7------7-----7-----7-----7---7-----7-----7---7-----7-----7----|


D#||-------------------------------------------------------------------|
A#||-------------------------------------------------------------------|
F#||------7-----7---------5-----5---------3-----3---------3-----3------|
C#||----8-----8-----8---7-----7-----7---5-----5-----5---5-----5-----5--|
G#||-------------------------------------------------------------------|
C#||--5-----5-----5---5-----5-----5---5-----5-----5---5-----5-----5----|


D#||-------------------------------------------------------------------|
A#||-------------------------------------------------------------------|
F#||------2-----2---------0-----0--------------------------------------|
C#||----3-----3-----3---2-----2-----2-----3-----3---------3-----3------|
G#||------------------------------------5-----5-----5---5-----5-----5--|
C#||--0-----0-----0---0-----0-----0---0-----0-----0---0-----0-----0----|


D#||-----------------------------------------------------------------------|
A#||-----------------------------------------------------------------------|
F#||-------9------9-----------7-----7---------5-----5---------5-----5------|
C#||----10-----10-----10----9-----9-----9---7-----7-----7---7-----7-----7--|
G#||-----------------------------------------------------------------------|
C#||--7------7------7-----7-----7-----7---7-----7-----7---7-----7-----7----|


D#||-------------------------------------------------------------------|
A#||-------------------------------------------------------------------|
F#||------7-----7---------5-----5---------3-----3---------3-----3------|
C#||----8-----8-----8---7-----7-----7---5-----5-----5---5-----5-----5--|
G#||-------------------------------------------------------------------|
C#||--5-----5-----5---5-----5-----5---5-----5-----5---5-----5-----5----|


D#||------------------------------------------------|
A#||------------------------------------------------|
F#||------2-----2---------0-----0-------------------|
C#||----3-----3-----3---2-----2-----2-----3-----3~--|
G#||------------------------------------5-----5-----|
C#||--0-----0-----0---0-----0-----0---0-----0-------|



Verse
Guitar 1/2:
D#||--------------------------------------------------------------------|
A#||--------------------------------------------------------------------|
F#||--------9--9--9--------7-7-7-----7---------5-5-5-------5-5-5-----5--|
C#||--------10-10-10-------9-9-9-----9---------7-7-7-------7-7-7-----7--|
G#||--7-7-7----------7-7-7-------7-7---7-7-7-7-------7-7-7-------7-7----|
C#||--7-7-7----------7-7-7-------7-7---7-7-7-7-------7-7-7-------7-7----|
      . . .          . . .       . .   . . . .       . . .       . .

D#||-----------------------------------------------------------------|
A#||-----------------------------------------------------------------|
F#||--------2-2-2-------4-4-4-----4---------5-5-5-------4-4-4-----4--|
C#||--------3-3-3-------5-5-5-----5---------7-7-7-------5-5-5-----5--|
G#||--3-3-3-------3-3-3-------3-3---0-3-3-3-------3-3-3-------3-3----|
C#||--3-3-3-------3-3-3-------3-3---0-3-3-3-------3-3-3-------3-3----|
      . . .       . . .       . .   . . . .       . . .       . .

D#||-----------------------------------------------------------------|
A#||-----------------------------------------------------------------|
F#||--------2-2-2-------0-0-0-----0----------------------------------|
C#||--------3-3-3-------2-2-2-----2---------3-3-3-------3-3-3-----3--|
G#||--0-0-0-------0-0-0-------0-0---0-0-0-0-5-5-5-0-0-0-5-5-5-0-0-5--|
C#||--0-0-0-------0-0-0-------0-0---0-0-0-0-------0-0-0-------0-0----|
      . . .       . . .       . .   . . . .       . . .       . .

D#||-----------------------------------------------------------------|
A#||-----------------------------------------------------------------|
F#||--------2-2-2-------4-4-4-----4---------5-5-5-------4-4-4-----4--|
C#||--------3-3-3-------5-5-5-----5---------7-7-7-------5-5-5-----5--|
G#||--3-3-3-------3-3-3-------3-3---0-3-3-3-------3-3-3-------3-3----|
C#||--3-3-3-------3-3-3-------3-3---0-3-3-3-------3-3-3-------3-3----|
      . . .       . . .       . .   . . . .       . . .       . .



Interlude
Guitar 1:
D#||-------|-------|-------|-------|
A#||-------|-------|-------|-------|
F#||-------|-------|-------|-------|
C#||-------|-------|-------|-------|
G#||---0~--|-------|-------|-------|
C#||-------|---3~--|---0~--|---3~--|


Guitar 2:
D#||----------------------|----------------------|----------------------|-------------------|
A#||----------------------|----------------------|----------------------|-------------------|
F#||------------------x2--|------------------x2--|------------------x2--|-------------------|
C#||----2------2---5------|----2------2---5------|----2------2---5------|----2------2---5---|
G#||--0------0---0--------|----------------------|----------------------|-------------------|
C#||----------------------|--3-------3--3--------|--0-------0--0--------|--3-------3--3-----|


D#||------------------------------------|
A#||------------------------------------|
F#||------------------------------------|
C#||-0h2-2-2-2-2-2-2-2-2-0-0-0-0-0-0-0--|
G#||------------------------------------|
C#||------------------------------------|



Verse
Guitar 1/2:
D#||--------------------------------------------------------------------|
A#||--------------------------------------------------------------------|
F#||--------9--9--9--------7-7-7-----7---------5-5-5-------5-5-5-----5--|
C#||--------10-10-10-------9-9-9-----9---------7-7-7-------7-7-7-----7--|
G#||--7-7-7----------7-7-7-------7-7---7-7-7-7-------7-7-7-------7-7----|
C#||--7-7-7----------7-7-7-------7-7---7-7-7-7-------7-7-7-------7-7----|
      . . .          . . .       . .   . . . .       . . .       . .

D#||-----------------------------------------------------------------|
A#||-----------------------------------------------------------------|
F#||--------2-2-2-------4-4-4-----4---------5-5-5-------4-4-4-----4--|
C#||--------3-3-3-------5-5-5-----5---------7-7-7-------5-5-5-----5--|
G#||--3-3-3-------3-3-3-------3-3---0-3-3-3-------3-3-3-------3-3----|
C#||--3-3-3-------3-3-3-------3-3---0-3-3-3-------3-3-3-------3-3----|
      . . .       . . .       . .   . . . .       . . .       . .

D#||-----------------------------------------------------------------|
A#||-----------------------------------------------------------------|
F#||--------2-2-2-------0-0-0-----0----------------------------------|
C#||--------3-3-3-------2-2-2-----2---------3-3-3-------3-3-3-----3--|
G#||--0-0-0-------0-0-0-------0-0---0-0-0-0-5-5-5-0-0-0-5-5-5-0-0-5--|
C#||--0-0-0-------0-0-0-------0-0---0-0-0-0-------0-0-0-------0-0----|
      . . .       . . .       . .   . . . .       . . .       . .

D#||----------------------------------------------------------------------|
A#||----------------------------------------------------------------------|
F#||--------9--9--9--------7-7-7-----7---------------5-5-5-5-5-5-5-5-5-5--|
C#||--------10-10-10-------9-9-9-----9---------------7-7-7-7-7-7-7-7-7-7--|
G#||--7-7-7----------7-7-7-------7-7---7-7-7-7-7-7-7----------------------|
C#||--7-7-7----------7-7-7-------7-7---7-7-7-7-7-7-7----------------------|
      . . .          . . .       . .   . . . . . . . . .



Bridge
Guitar 1:
D#||--------------------------------|------------------------------------|
A#||--8----5------------------------|------------------------------------|
F#||------------5--7----4-----------|--5---------7--4---------4--5-------| x2
C#||-------------------------5--7~--|-------7------------5------------7~-|
G#||--------------------------------|------------------------------------|
C#||--------------------------------|------------------------------------|


Guitar 2:
D#||--------------------------------------------------------|
A#||--------------------------------------------------------|
F#||--------------------------------------------------------| x4
C#||--3~---3~---3~-5~---5~---5~-7~---7~---7~-7~---7~---7~---|
G#||--3~---3~---3~-5~---5~---5~-7~---7~---7~-7~---7~---7~---|
C#||--3~---3~---3~-5~---5~---5~-7~---7~---7~-7~---7~---7~---|



Chorus/Outro
Guitar 1:
D#||--12-10---12------12------12------15-12---17--|
A#||-------------10--------------10---------------|
F#||---------------------12-----------------------| x4
C#||----------------------------------------------|
G#||----------------------------------------------|
C#||----------------------------------------------|


Guitar 2:
D#||--------------------------------------------------------|
A#||--------------------------------------------------------|
F#||--------------------------------------------------------| x2
C#||--3~---3~---3~-5~---5~---5~-7~---7~---7~-7~---7~---7~---|
G#||--3~---3~---3~-5~---5~---5~-7~---7~---7~-7~---7~---7~---|
C#||--3~---3~---3~-5~---5~---5~-7~---7~---7~-7~---7~---7~---|


Guitar 1:
D#||--5-3-55-3-55-3-55-3-55-3-5-3--|-8-7-88-7-88-7-88-7-88-7-8-7--|
A#||-------------------------------|------------------------------|
F#||-------------------------------|------------------------------|
C#||-------------------------------|------------------------------|
G#||-------------------------------|------------------------------|
C#||-------------------------------|------------------------------|


D#||--12-10-1212-10-1212-10-1212-10-1212-10-12-10-------|
A#||----------------------------------------------------|
F#||------------------------------------------------x2--| x2
C#||----------------------------------------------------|
G#||----------------------------------------------------|
C#||----------------------------------------------------|


D#||--5-3-55-3-55-3-55-3-55-3-5-3--|-8-7-88-7-88-7-88-7-88-7-8-7--|
A#||-------------------------------|------------------------------|
F#||-------------------------------|------------------------------|
C#||-------------------------------|------------------------------|
G#||-------------------------------|------------------------------|
C#||-------------------------------|------------------------------|


D#||--12-10-1212-10-1212-10-1212-10-1212-10-12-10--|
A#||-----------------------------------------------|
F#||-----------------------------------------------|
C#||-----------------------------------------------|
G#||-----------------------------------------------|
C#||-----------------------------------------------|


D#||--12-10-12-13-12-13-12-13-12-10-12-10----10-12-10--|
A#||--------------------------------------13-----------|
F#||---------------------------------------------------|
C#||---------------------------------------------------|
G#||---------------------------------------------------|
C#||---------------------------------------------------|



D#||--5-3-55-3-55-3-55-3-55-3-5-3--|-8-7-88-7-88-7-88-7-88-7-8-7--|
A#||-------------------------------|------------------------------|
F#||-------------------------------|------------------------------|
C#||-------------------------------|------------------------------|
G#||-------------------------------|------------------------------|
C#||-------------------------------|------------------------------|


D#||--12---5---8~---|
A#||----------------|
F#||----------------|
C#||----------------|
G#||----------------|
C#||----------------|


Guitar 2:
D#||-------------------------------------------------------------------|
A#||-------------------------------------------------------------------|
F#||-------------------------------------------------------------------| x3
C#||-3333333333333333555555555555555577777777777777777777777777777777--|
G#||-3333333333333333555555555555555577777777777777777777777777777777--|
C#||-3333333333333333555555555555555577777777777777777777777777777777--|


D#||--------------------------------------|
A#||--------------------------------------|
F#||--------------------------------------|
C#||-33333333333333335555555555555555-0~--|
G#||-33333333333333335555555555555555-0~--|
C#||-33333333333333335555555555555555-0~--|





Tablature Legend
----------------
 h   hammer-on
 p   pull-off
 b   bend
 pb  pre-bend
 r   release bend
 ~   hold / vibrato
 .   palm mute
 /   slide up
 \   slide down
 *   pinch harmonic
 '   natural harmonic
 x   mute note
 T   tap
comments
print report bad tab
2 comments total.
0 reply
Sam Rulez D00d wrote on October 5 2010, 03:50 pm

great tab!

0 reply
xKnifekillerx wrote on October 6 2010, 12:02 pm

Awesome mate.

I want to post or [tab]
guest
You may want to rate the tab now too:
select rating
Please do not post tabs as comments. Select "correction" instead!