Oops, an error
Loading. Please wait.

American Dream Tab

ver4
ver4

Whole song

More versions @911Tabs.com
232 views 3 this week
no commentswrite comment
1 2 3 4 5
please rate
Autoscroll
+/-
esc
set tempo
stop
Difficulty
Tuning
intermediate
C# G# C# F# A# D#
WARNING: You are trying to view
                                    content from Ultimate-Guitar.com
                                    in an unauthorized application,
                                    which is prohibited.

                                    Please use an official Ultimate
                                    Guitar Tabs application for iPhone,
                                    iPad or Android to access legitimate
                                    chords, guitar, bass, and drum tabs
                                    from Ultimate-Guitar.com database.

                                    Type "ultimate guitar tabs" in Apple
                                    App Store's or Android Market's
                                    search to find the application.
Artist: Silverstein
Song: American Dream
Guitar Tuning:C#G#C#F#A#D#


INTRO, pt.I 
Lead guitar
D#|---------------------0-------|
A#|-------3-----3-----3---3-----|
F#|-----0-----0-----0-------0---|
C#|---5-----5-----5-----------5-|
G#|-------5-----3---------------| x3
C#|-2---------------------------|

D#|------------------3~|
A#|--------3-----3---0~|
F#|------0-----0-----5~|
C#|----5-----5-------3~|
G#|--------5-----------|
C#|-2------------------|

INTRO, pt.II 
Lead Guitar
D#|-----------------------------------------------------------|
A#|-----------------------------------------------------------|
F#|----------------5~----------5~-----5~-5~-5~-5~-5~-5~-5~----|
C#|-0~--5-4-0--2~--5~--0~--2~--5~-0~--5~-5~-5~-5~-5~-5~-5~----|
G#|-0~--5-4-0--2~--3~--0~--2~--3~-0~--3~-3~-3~-3~-3~-3~-3~----|
C#|-0~--5-4-0--2~------0~--2~-----0~--------------------------|
        . . .

VERSE 
Lead guitar
D#|--------------------------------------------------|
A#|--------------------------------------------------|
F#|--------------------------------------------------|
C#|-----4---4h5-----4---4h5-----4---4h5--7-5-4-5-4---|
G#|-------------3-3---3----------------------------5-|
C#|-2-2---2-----------------0-0---0------------------|
    . .   .     . .   .     . .   . 

D#|--------------------------------------------------|
A#|--------------------------------------------------|
F#|--------------------------------------------------|
C#|-----4---4h5-----4---4h5 ---4h5-5h7-7h9-----------|
G#|-------------3-3---3------------------------------|
C#|-2-2---2------------------------------------------|
    . .   .

D#|--------------------------------------------------|
A#|--------------------------------------------------|
F#|--------------------------------------------------|
C#|-----4---4h5-----4---4h5-----4---4h5--7-5-4-5-4---|
G#|-------------3-3---3----------------------------5-|
C#|-2-2---2-----------------0-0---0------------------|
    . .   .     . .   .     . .   . 

D#|-----------------------------------------------------------|
A#|-----------------------------------------------------------|
F#|-----------------------------------------------------------|
C#|-----4---4h5-----4---4h5- 4h5-5h7-7h9--7+7+7+7+7+7+--------|
G#|--------------3-3---3--------------------------------------|
C#|-2-2---2---------------------------------------------------|
    . .   .      .  .    .     



CHORUS I 
Lead guitar 
D#|-15----15---------------------------------------------------------------|
A#|----------12-12-12-13-13-13-15-15-15------------------12-12-13-13-15-15-|
F#|-------------------------------------12-12-12-14-14-14------------------|
C#|------------------------------------------------------------------------|
G#|------------------------------------------------------------------------|
C#|------------------------------------------------------------------------|

D#|-15---15------------------------------------------------------|
A#|---------12-12-12-13-13-13-15-15-15---------------------------|
F#|--------------------------------------14----16-16-16-17---14--|x2
C#|--------------------------------------------------------------|
G#|--------------------------------------------------------------|
C#|--------------------------------------------------------------|

D#|-------------------14-14-14-14-14-14------------------------------------|
A#|----------15-15-15------------------------------------------------------|
F#|-14-14-14---------------------------------------------------------------|
C#|------------------------------------------------------------------------|
G#|------------------------------------------------------------------------|
C#|------------------------------------------------------------------------|

VERSE II (0:44-0:58)
Lead guitar
D#|--------------------------------------------------|
A#|--------------------------------------------------|
F#|--------------------------------------------------|
C#|-----4---4h5-----4---4h5-----4---4h5--7-5-4-5-4---|
G#|-------------3-3---3----------------------------5-|
C#|-2-2---2-----------------0-0---0------------------|
    . .   .     . .   .     . .   . 

D#|---------------------------------------|
A#|---------------------------------------|
F#|---------------------------------------|
C#|-----4---4h5-----4---4h5 -4h5-5h7-7h9--|
G#|-------------3-3---3-------------------|
C#|-2-2---2-------------------------------|
    . .   .     . .   .     

D#|--------------------------------------------------|
A#|--------------------------------------------------|
F#|--------------------------------------------------|
C#|-----4---4h5-----4---4h5-----4---4h5--7-5-4-5-4---|
G#|-------------3-3---3----------------------------5-|
C#|-2-2---2-----------------0-0---0------------------|
    . .   .     . .   .     . .   . 

D#|------------------------------------------------------------------------|
A#|------------------------------------------------------------------------|
F#|------------------------------------------------------------------------|
C#|-----4---4h5-----4---4h5 -4h5-5h7-7h9--4h5-5h7-7h9 4h5-5h7-7h9----------|
G#|-------------3-3---3----------------------------------------------------|
C#|-2-2---2----------------------------------------------------------------|


D#|--------------------|
A#|--------------------|
F#|--------------------|
C#|-7-7-7-7-7-7--------|
G#|--------------------|
C#|--------------------|


CHORUS II 
Lead guitar 
D#|-15----15---------------------------------------------------------------|
A#|----------12-12-12-13-13-13-15-15-15------------------12-12-13-13-15-15-|
F#|-------------------------------------12-12-12-14-14-14------------------|
C#|------------------------------------------------------------------------|
G#|------------------------------------------------------------------------|
C#|------------------------------------------------------------------------|

D#|-15---15------------------------------------------------------|
A#|---------12-12-12-13-13-13-15-15-15---------------------------|
F#|--------------------------------------14----16-16-16-17---14--|x2
C#|--------------------------------------------------------------|
G#|--------------------------------------------------------------|
C#|--------------------------------------------------------------|

D#|-------------------14-14-14-14-14-14--------------------------|
A#|----------15-15-15--------------------------------------------|
F#|-14-14-14-----------------------------------------------------|
C#|--------------------------------------------------------------|
G#|--------------------------------------------------------------|
C#|--------------------------------------------------------------|


BREAKDOWN 
Lead guitar
D#|---------------------------------------------------------------------|
A#|---------------------------------------------------------------------|
F#|--------------------------------5-5-5-5-5-5--------------------------|
C#|-0-----------------2-2-2-2-2-2--5-5-5-5-5-5--0-0-0-0-0-0-0-0-0-0-0-0-|
G#|-0---5---4---0-----2-2-2-2-2-2--3-3-3-3-3-3--0-0-0-0-0-0-0-0-0-0-0-0-|
C#|-0---5---4---0-----2-2-2-2-2-2---------------0-0-0-0-0-0-0-0-0-0-0-0-|
    
D#|---------------------------------------------------------------------|
A#|---------------------------------------------------------------------|
F#|--------------------------------5-5-5-5-5-5--------------------------|
C#|-0-----------------2-2-2-2-2-2--5-5-5-5-5-5--0-0-0-0-0-0-0-0-0-0-0-0-|
G#|-0---5---4---0-----2-2-2-2-2-2--3-3-3-3-3-3--0-0-0-0-0-0-0-0-0-0-0-0-|
C#|-0---5---4---0-----2-2-2-2-2-2---------------0-0-0-0-0-0-0-0-0-0-0-0-|

BRIDGE
Lead guitar 
D#|-------5------------5------------5------------5------------5------|
A#|-5-7-8---8-7--5-7-8---8-7--5-7-8---8-7--5-7-8---8-7--5-7-8---8-7--|x3
F#|------------------------------------------------------------------|
C#|------------------------------------------------------------------|
G#|------------------------------------------------------------------| 
C#|------------------------------------------------------------------|

D#|-------5------------5------------------------------------------|
A#|-5-7-8---8-7--5-7-8---8-7--------------------------------------|
F#|---------------------------------------------------------------|
C#|---------------------------------------------------------------|
G#|--------------------------0-0-0-0-0-0-0-0-0-0-0-0-0-0-0-0-0-0--| 
C#|--------------------------0-0-0-0-0-0-0-0-0-0-0-0-0-0-0-0-0-0--|


FINAL CHORUS
Lead guitar
D#|-15----15---------------------------------------------------------------|
A#|----------12-12-12-13-13-13-15-15-15------------------12-12-13-13-15-15-|
F#|-------------------------------------12-12-12-14-14-14------------------|
C#|------------------------------------------------------------------------|
G#|------------------------------------------------------------------------|
C#|------------------------------------------------------------------------|

D#|-15---15------------------------------------------------------|
A#|---------12-12-12-13-13-13-15-15-15---------------------------|
F#|--------------------------------------14----16-16-16-17---14--|
C#|--------------------------------------------------------------|
G#|--------------------------------------------------------------|
C#|--------------------------------------------------------------|

D#|-15----15---------------------------------------------------------------|
A#|----------12-12-12-13-13-13-15-15-15------------------12-12-13-13-15-15-|
F#|-------------------------------------12-12-12-14-14-14------------------|
C#|------------------------------------------------------------------------|
G#|------------------------------------------------------------------------|
C#|------------------------------------------------------------------------|

D#|-15---15----------------------------------------------14-14-14-14-14-14-|
A#|---------12-12-12-13-13-13-15-15-15----------15-15-15-------------------|
F#|------------------------------------14-14-14----------------------------|
C#|------------------------------------------------------------------------|
G#|------------------------------------------------------------------------|
C#|------------------------------------------------------------------------|


D#|-15----15---------------------------------------------------------------|
A#|----------12-12-12-13-13-13-15-15-15------------------12-12-13-13-15-15-|
F#|-------------------------------------12-12-12-14-14-14------------------|
C#|------------------------------------------------------------------------|
G#|------------------------------------------------------------------------|
C#|------------------------------------------------------------------------|

D#|-15---15------------------------------------------------------|
A#|---------12-12-12-13-13-13-15-15-15---------------------------|
F#|--------------------------------------14----16-16-16-17---14--|
C#|--------------------------------------------------------------|
G#|--------------------------------------------------------------|
C#|--------------------------------------------------------------|

D#|-15----15---------------------------------------------------------------|
A#|----------12-12-12-13-13-13-15-15-15------------------12-12-13-13-15-15-|
F#|-------------------------------------12-12-12-14-14-14------------------|
C#|------------------------------------------------------------------------|
G#|------------------------------------------------------------------------|
C#|------------------------------------------------------------------------|

D#|-15---15----------------------------------------------14-14-14-14-14-14-|
A#|---------12-12-12-13-13-13-15-15-15----------15-15-15-------------------|
F#|------------------------------------14-14-14----------------------------|
C#|------------------------------------------------------------------------|
G#|------------------------------------------------------------------------|
C#|------------------------------------------------------------------------|





OUTRO
Lead guitar
D#|----------------------------------------------------------------|
A#|----------------------------------------------------------------|
F#|--------------------------------------5-5-5-5-5-5---------------|x4
C#|--------------------------------------5-5-5-5-5-5---------------|
G#|-2-2-2-0-2-0-2-2-2-0-2-0-2-2-2-0-2-0--3-3-3-3-3-3---------------|
C#|-2-2-2-0-2-0-2-2-2-0-2-0-2-2-2-0-2-0----------------------------|

D#|-------------------------------------------------------|
A#|-------------------------------------------------------|
F#|-5-5-5---------5-5-5---------5-5-5---------------------|
C#|-5-5-5--5-5-5--5-5-5--5-5-5--5-5-5--5-5-----2----------|
G#|-3-3-3--5-5-5--3-3-3--5-5-5--3-3-3--5-5--0--2----------|
C#|--------5-5-5---------5-5-5---------5-5--0--2----------|

By: Christopher Escobedo
email: cescobedo9@hotmail.com
comments
We did not receive enough feedback on this tab! Please rate:
print report bad tab
1 2 3 4 5
I want to post or [tab]
guest
You may want to rate the tab now too:
select rating
Please do not post tabs as comments. Select "correction" instead!