Oops, an error
Loading. Please wait.

Arrivals And Departures Bass Tab

1,749 views 3 this week
4 commentsread comments
1 2 3 4 5
excellent!
x 4
add to favorites launch autoscroll
font size
0
reset
Autoscroll
+/-
esc
set tempo
stop
Contributor
WARNING: You are trying to view
                                    content from Ultimate-Guitar.com
                                    in an unauthorized application,
                                    which is prohibited.

                                    Please use an official Ultimate
                                    Guitar Tabs application for iPhone,
                                    iPad or Android to access legitimate
                                    chords, guitar, bass, and drum tabs
                                    from Ultimate-Guitar.com database.

                                    Type "ultimate guitar tabs" in Apple
                                    App Store's or Android Market's
                                    search to find the application.
++++++++++++++++++++++++++++++++++++++
| Silverstein- Arrivals & Departures |
++++++++++++++++++++++++++++++++++++++

Bass Tab
Album: "Arrivals & Departures" -- 2007
Tabbed By: RaiLeff
E-Mail: Underground__Dora@Hotmail.Com 

Hey its me again tabbing this new album by
a really great band
When I first heard the songs I was really dissapointed
I expected more from Silverstein, but hearing the songs
over and over, I started to like it a lot
So here are the first eleven songs
Since I cant get "Rain Will Fall" and "Falling Down"
from anywhere, I think they are BestBuy only thingy
So if you have these tracks dont hesitate to contact me
Bye, enjoy and rate 

_______________________
EDIT: 12/21/2007

I finally downloaded the last two tracks and transcibed them both
so they're at the end of this tab, tracks 12 and 13
Thanx again

Tuning: Standard, Drop D, Drop C# and Eb

Keys:

| x: Mute
| ~: Let Ring
| /: Slide Up
| \: Slide Down
| h: Hammer On
| p: Pull Off

Tracks:

1.  Sound Of The Sun
2.  Bodies And Words
3.  If You Could See Into My Soul
4.  Worlds Apart
5.  My Disaster
6.  Still Dreaming 
7.  The Sand Will Turn To Glass
8.  Here Today, Gone Tomorrow
9.  Vanity And Greed
10. Love With Caution
11. True Romance
12. Rain Will Fall 
13. Falling Down   

_________________________________________

1. Sound Of The Sun

Tuning: Drop C# (C#ADG)

Intro
"You've cast these scars across my face..."
1.
G |---------------------------------------------------|
D |---------------------------------------------------|
A |-------------------------------------------1-1-----|
C#|-4~----0~----2~--------4~----0~----2222222-----2-2-|

2.
G |--------------------------------------------------------------------------------------|
D |------------------------------------------------------------------------------------1-|
A |---------------------------------1-----------------------------------1-1111-1-4-4444--|
C#|-4-4444-4-7--6-4-6--4-2-0-0000-0----7-6-7--6-2-4-4444-4-7-6-4-6--4-2------------------|

Verse
"And I dont know whats wrong with me..."
3.
G |-----------------------------------------------------|
D |-3~--------3-----------------------------------------|
A |-------------4~--------4-----------------------------|
C#|-------------------------7~--------7-6~----6-2~------|

"And now Im standing here alone..."
4.
G |-------------------------------------------------------------------------|
D |-------------------------------------------------------------------------|
A |-------------------------------------------------------------------------|
C#|-44444444-44444444-00000000-00000000-77777777-77777777-66666666-22222222-|

Pre-Chorus
"Maybe I just have to let it go..."
5.
G |-----------------------------|
D |-----------------------------|
A |-1~--------------------------|
C#|-----------00000000-00000000-|

Chorus
"Make it up, make it up when you're not around..."
6.
G |-------------------------------------------------------------------------|
D |-------------------------------------------------------------------------|
A |-------------------------------------11111111-11111111-------------------|
C#|-44444444-44444444-77777777-77777777-------------------00000000-11111111-|

7.
G |------------------------------------------------------------------------|
D |------------------------------------------------------------------------|
A |-------------------------------------11111111-11111111----------1-1-----|
C#|-44444444-44444444-77777777-77777777-------------------00000000-----2-2-|

Outro
8.
G |--------------------------------------------------------------------------------------|
D |------------------------------------------------------------------------------------1-|
A |---------------------------------1-----------------------------------1-1111-1-4-4444--|
C#|-4-4444-4-7--6-4-6--4-2-0-0000-0----7-6-7--6-2-4-4444-4-7-6-4-6--4-2------------------|

Verse
"And nothing's ever as it seems..."
9.
G |-----------------------------------------------------|
D |-3~--------3-----------------------------------------|
A |-------------4~--------4-----------------------------|
C#|-------------------------7~--------7-6~----6-2~------|

"And all the trauma takes its toll..."
10.
G |-------------------------------------------------------------------------|
D |-------------------------------------------------------------------------|
A |-------------------------------------------------------------------------|
C#|-44444444-44444444-00000000-00000000-77777777-77777777-66666666-22222222-|

Pre-Chorus
"Maybe you just have to let me know..."
11.
G |-----------------------------|
D |-----------------------------|
A |-1~--------------------------|
C#|-----------00000000-00000000-|

Chorus
"Make it up, make it up when you're not around..."
12.
G |-------------------------------------------------------------------------|
D |-------------------------------------------------------------------------|
A |-------------------------------------11111111-11111111-------------------|--x2
C#|-44444444-44444444-77777777-77777777-------------------00000000-11111111-|

Outro
"You've cast these scars across my face..."
13.
G |----------------------------------------------|
D |----------------------------------------------|
A |----------------------------------------------|
C#|-4~----0~----2~--------4~----0~----222222222x-|

Bridge
14.
G |-------------------------------------------------------------------------------------|
D |-------------------------------------------------------------------------------------|
A |-------------------------------1--------------------------------------11-11~---------|
C#|-44-44~--7-6-4-6--4-2-4-00-00~---7-6-7--6-2-4--44-44~--7-6-4-6--4-2-4--------00-00-2-|

15.
G |-----------------------------------------------------------------------------------------|
D |-----------------------------------------------------------------------------------------|
A |-------------------------------1--------------------------------------11-11~-------------|
C#|-44-44~--7-6-4-6--4-2-4-00-00~---7-6-7--6-2-4--44-44~--7-6-4-6--4-2-4--------0-0-0-2-2-2-|

Pre-Chorus
"Maybe I just have to let it go..."
16.
G |-----------------------------------------------|
D |-----------------------------------------------|
A |-1~--------------------------------------------|
C#|-----------00000000-00000000-00000000-00000000-|

Chorus
"Make it up, make it up when you're not around..."
17.
G |-------------------------------------------------------------------------|
D |-------------------------------------------------------------------------|
A |-------------------------------------11111111-11111111-------------------|
C#|-44444444-44444444-77777777-77777777-------------------00000000-11111111-|

18.
G |--------------------------------------------------------------------------|
D |--------------------------------------------------------------------------|
A |-------------------------------------11111111-11111111----------1-1-------|
C#|-44444444-44444444-77777777-77777777-------------------00000000-----2-2-4-|

Lyrics:

You've cast these scars across my face
You can't bring me down.
You think I'll never be the same.

And I don't know what's wrong with me,
I wanted to be all the things you need,
All the things you need.

And now I'm standing here alone,
I'm waiting for it all to come and go,
All to come and go.

Maybe I just have to let it go...

Make it up, make it up when you're not around.
Break it up, break it up, can't you hear the sound of the sun
Rising from the ground
Make it up, make it up when you're not around.
Break it up, break it up, do you always wanna be the one
Running from yourself

And nothing's ever as it seems
When all your dreams exist in memories,
Exist in memories.

And all the trauma takes its toll.
I don't remember all our common goals,
All our common goals.

Maybe you just have to let me know...

It's not you I'm afraid of
But I'm not scared of myself
You'll lie with or without me
You'll never need my help

__________________________________________________

2. Bodies And Words

Tuning: Drop C# (C#ADG)

Intro
1.
G |-------------------------------------------------|
D |-------------------------------------------------|
A |---------------222~-22-2-2-----------------------|
C#|-0-222~-22-2-2-------------000~-00-0-0-000~-00-0-|

2.
G |----------------------------------------------------|
D |----------------------------------------------------|
A |---------------222~-22-2-2-------------5555-5555-5x-|
C#|-0-222~-22-2-2-------------000~-00-0-0--------------|

3.
G |--------------------------------------|
D |--------------------------------------|
A |----------------------------2222------|--x2
C#|-22-0-2-0-22-0-2-0-22-0-2-0------0000-|

4.
G |-----------|
D |-----------|
A |-11111111x-|
C#|-----------|

Verse
"This conversation always ends..."
5.
G |-------------------------------------------------------------|
D |-------------------------------------------------------------|
A |-------------------------------2~-22-2~--2222----------------|
C#|-2~-22-2~--2222-2~-22-2~--2222----------------0~-00-0~--0000-|

6.
G |--------------------------------------------------------|
D |--------------------------------------------------------|
A |-------------------------------2~-22-2~--2222-4-4-1~----|
C#|-2~-22-2~--2222-2~-22-2~--2222--------------------------|

Chorus
"Maybe you just have to sleep..."
7.
G |------------------------------------------------------------|
D |------------------------------------------------------------|
A |-2x--2-4x--4-6x--6-6-6666-4~--2x--2-4x--4-1-1111111-6666-4~-|
C#|------------------------------------------------------------|

"Better than perfect..."
8.
G |---------------------------------------------------------------------|
D |-------------------4--3----------------------------------------------|
A |-22222222-44444444-------6---4---4h6p4-22222222-22222222-11111111-1x-|
C#|---------------------------------------------------------------------|

Outro
9.
G |-----------------------------------------|
D |-----------------------------------------|
A |----------------------------2222------1x-|
C#|-22-0-2-0-22-0-2-0-22-0-2-0------0000----|

Verse
"Theres no defense left..."
10.
G |-------------------------------------------------------------|
D |-------------------------------------------------------------|
A |-------------------------------2~-22-2~--2222----------------|
C#|-2~-22-2~--2222-2~-22-2~--2222----------------0~-00-0~--0000-|

11.
G |--------------------------------------------------------|
D |--------------------------------------------------------|
A |-------------------------------2~-22-2~--2222-4-4-1~----|
C#|-2~-22-2~--2222-2~-22-2~--2222--------------------------|

Chorus
"Maybe you just have to sleep..."
12.
G |------------------------------------------------------------|
D |------------------------------------------------------------|
A |-2x--2-4x--4-6x--6-6-6666-4~--2x--2-4x--4-1-1111111-6666-4~-|
C#|------------------------------------------------------------|

"Better than perfect..."
13.
G |------------------------------------------------------------------|
D |-------------------4--3-------------------------------------------|
A |-22222222-44444444-------6---4---4h6p4-22222222-22222222-11111111-|
C#|------------------------------------------------------------------|

Outro
14.
G |-------------------------------------------------|
D |-------------------------------------------------|
A |---------------222~-22-2-2-----------------------|
C#|-0-222~-22-2-2-------------000~-00-0-0-000~-00-0-|

15.
G |-----------------------------------------------------------------|
D |-----------------------------------------------------------------|
A |---------------222~-22-2-2-------------444444444444-444444444444-|
C#|-0-222~-22-2-2-------------000~-00-0-0---------------------------|

Bridge
16.
G |----------------------------------------------------------------|
D |----------------------------------------------------------------|
A |----------------------------------------------------4-4-4\1-1-1-|--x4
C#|-2~-xxxx-4~-5~-7~-0~-xxxx-4~-5~-7~-2~-xxxx-4~-5~-7~-------------|

"And words..."
17.
G |-------------------------------------|
D |-------------------------------------|
A |-4-4-4\1-1-1-4-4-4\1-1-1-4-4-4\1-1-1-|
C#|-------------------------------------|

Chorus
"Maybe you just have to sleep..."
18.
G |------------------------------------------------------------|
D |------------------------------------------------------------|
A |-2x--2-4x--4-6x--6-6-6666-4~--2x--2-4x--4-1-1111111-6666-4~-|
C#|------------------------------------------------------------|

"Better than perfect..."
19.
G |---------------------------------------------------------------------|
D |-------------------4--3----------------------------------------------|
A |-22222222-44444444-------6---4---4h6p4-22222222-22222222-11111111-1x-|
C#|---------------------------------------------------------------------|

Outro
20.
G |------|
D |------|
A |------|
C#|-0-2x-|

Lyrics:

This conversation always ends with goodbyes
Your standing here behind the door
Your waiting with your robe

Maybe you just have to sleep
In someone else's bed
Maybe you just have to keep
Searching for something
Better than perfect, which you know will never exist
Its cut and drawn

Theres no defense left
Look what love is
You know this
The clock is running down on me
Theres no way I can win

I knew this all along
I loved you anyways
Despite all your deceit
Think about if you would be faithful
How I would have felt
Now all we have left are bodies and words
I can't be your boy forever

____________________________________________________________

3. If You Could See Into My Soul

Tuning: Drop D (DADG)

I know step one is not the bass
but I like to play it meanwhile
Enjoy!


Intro (Step one, dough!)
1.
G|---------------------------------|
D|-----------------4-4-4-4---------|
A|-6-6-6-6-6-6-6-6---------4-4-4-4-|--x2
D|---------------------------------|

2.
G|-------------------------------------------------------------------------|
D|-------------------44444444----------------------------44444444----------|
A|-66666666-66666666----------44444444-66666666-66666666----------44444444-|
D|-------------------------------------------------------------------------|

3.
G|----------------|
D|----------------|
A|-4-6-6-4-66666x-|
D|----------------|

Verse
"I hear you choking..."
4.
G|-------------------------------33---------------|
D|-------44----------------3h4444--4--------33----|
A|-4h6666--6---4h6666664---------------44444--4---|--x2
D|------------------------------------------------|

"We've been down this road..."
5.
G|------------------------------------------------|
D|-------------------------------11---------33----|
A|-4h6666664---4h6666664---222222--2---44444--4---|
D|------------------------------------------------|

6.
G|-------------------------------33---------------|
D|-------44----------------3h4444--4--------33----|
A|-4h6666--6---4h6666664---------------44444--4---|
D|------------------------------------------------|

Pre-Chorus
7.
G|----------------|
D|----------------|
A|-4444444444-5-5-|
D|----------------|

Chorus
"Get ready, get ready, get ready for this..."
8.
G|-----------------------------------------------------------------------|
D|-111---111---11------------------------111---111--11-------------------|
A|-----------------------------------------------------------------------|
D|----111---111--11-44444444-66666666-111---111---11---66666666-44444466-|

9.
G|-----------------------------------------------------------------------|
D|-111---111---11------------------------111---111--11-------------------|
A|-----------------------------------------------------------------------|
D|----111---111--11-44444444-66666666-111---111---11---66666666-44444466-|

10.
G|-------------------|
D|-------------------|
A|-11111111-11111111-|
D|-------------------|

Outro
11.
G|-------------------------------------------------------------------------|
D|-------------------44444444----------------------------44444444----------|
A|-66666666-66666666----------44444444-66666666-66666666----------44444444-|
D|-------------------------------------------------------------------------|

12.
G|----------------|
D|----------------|
A|-4-6-6-4-66666x-|
D|----------------|

Verse
"Im leaving you out..."
13.
G|-------------------------------33---------------|
D|-------44----------------3h4444--4--------33----|
A|-4h6666--6---4h6666664---------------44444--4---|--x2
D|------------------------------------------------|

14.
G|------------------------------------------------|
D|-------------------------------11---------33----|
A|-4h6666664---4h6666664---222222--2---44444--4---|
D|------------------------------------------------|

15.
G|-------------------------------33---------------|
D|-------44----------------3h4444--4--------33----|
A|-4h6666--6---4h6666664---------------44444--4---|
D|------------------------------------------------|

Pre-Chorus
16.
G|----------------|
D|----------------|
A|-4444444444-5-5-|
D|----------------|

Chorus
"Get ready, get ready, get ready for this..."
17.
G|-----------------------------------------------------------------------|
D|-111---111---11------------------------111---111--11-------------------|
A|-----------------------------------------------------------------------|
D|----111---111--11-44444444-66666666-111---111---11---66666666-44444466-|

18.
G|-----------------------------------------------------------------------|
D|-111---111---11------------------------111---111--11-------------------|
A|-----------------------------------------------------------------------|
D|----111---111--11-44444444-66666666-111---111---11---66666666-44444466-|

19.
G|-------------|
D|-------------|
A|-111111111~x-|
D|-------------|

Bridge
20.
G|---------------------------------------------------------------------------------|
D|---------------------------------------------------------------------------------|
A|---------------------222222x---------------------------------222222x-------------|
D|-111111x---111111x-------------4443343---111111x---111111x-------------4443343---|

21.
G|----------------------------------------------------------------------------------------|
D|------------------------------------3~--------------------------------------------------|
A|---------------------222222x---44343-------------------------222222x-44444444444444-5-5-|
D|-666666x---666666x-----------------------666666x---666666x------------------------------|

Chorus
"Get ready, get ready, get ready for this..."
22.
G|-----------------------------------------------------------------------|
D|-111---111---11------------------------111---111--11-------------------|
A|-----------------------------------------------------------------------|
D|----111---111--11-44444444-66666666-111---111---11---66666666-44444466-|

23.
G|-----------------------------------------------------------------------|
D|-111---111---11------------------------111---111--11-------------------|
A|-----------------------------------------------------------------------|
D|----111---111--11-44444444-66666666-111---111---11---66666666-44444466-|

24.
G|-------------------|
D|-------------------|
A|-11111111-11111111-|
D|-------------------|

Outro
25.
G|-------------------------------------------------------------------------|
D|-------------------44444444----------------------------44444444----------|
A|-66666666-66666666----------44444444-66666666-66666666----------44444444-|--x2
D|-------------------------------------------------------------------------|

26.
G|-------------------|
D|-------------------|
A|-4-6-6-4-66666x-6x-|
D|-------------------|

Lyrics:

I hear you choking on your words again
The secrets in your throat
And I really wish you'd say
What you're thinking
We've been down this road
So many times before
My stomach can not take it
I've been killing time
You've been crossing lines
You say

Get ready, get ready, get ready for this
I'm taking out my dagger
Just say it, just say it, just say it for me
I'm holding it up to your throat
are you ready, are you ready, are you ready for this
you don't wanna hear it
just say it, just say it, just say it again
It will tear your soul apart again

I'm leaving you out in the cold again
I'll let you freeze to death
I wont let you see the flames
Just the chimney
Where there's smoke there's fire
But I'm such a good liar
You cant read the signals
And my lips are sealed
Saying words that deal
Your shame

Stick to your guns
You've been betting it all on a long shot
16 ways
You gotta call a spade a spade
There is no ace up your sleeve
How can you believe you will win

___________________________________________________

4. Worlds Apart

Tuning: Drop C# (C#ADG)

Intro
"Lying all alone..."
1.
G |--------------------------------------------------------------|
D |--------------------------------------------------------------|
A |-4~----3~----1~----------4~----3~----1~-----------------------|
C#|-------------------7~----------------------5-5-5-5x--5-5-5-5x-|

Verse
"What do I think of dying..."
2.
G |-------------------------------------|
D |-------------------------------------|
A |-11111111----------------------------|--x2
C#|----------00000000-77777777-55555555-|

Pre-Chorus
"I dont want to be a fraud..."
3.
G |-------------------------------------------------------------------------|
D |-------------------------------------------------------------------------|
A |-------------------------------------------------------------------------|
C#|-44444444-44444444-55555555-55555555-00000000-00000000-00000000-00000000-|

4.
G |-------------------------------------------------|
D |-------------------------------------------------|
A |-------------------------------------------------|
C#|-44444444-44444444-55555555-55555555-7-7-7-7--7x-|

Chorus
"Ill follow through again this time..."
5.
G |--------------------------------------------------------------------|
D |--------------------------------------------------------------------|
A |---------------------------------1-1-1-1----------------------------|
C#|-0-0-0-0-0-0-0-0-5-5-5-5-5-5-5-5---------7-7-7-7-5-5-5-5x--5-5-5-5x-|

Verse
"You read me like a book..."
6.
G |-------------------------------------|
D |-------------------------------------|
A |-11111111----------------------------|--x2
C#|----------00000000-77777777-55555555-|

Pre-Chorus
"These old habits die so hard..."
7.
G |-------------------------------------------------------------------------|
D |-------------------------------------------------------------------------|
A |-------------------------------------------------------------------------|
C#|-44444444-44444444-55555555-55555555-00000000-00000000-00000000-00000000-|

8.
G |-------------------------------------------------|
D |-------------------------------------------------|
A |-------------------------------------------------|
C#|-44444444-44444444-55555555-55555555-7-7-7-7--7x-|

Chorus
"Ill follow through again this time..."
9.
G |-----------------------------------------------------------------|
D |-----------------------------------------------------------------|
A |---------------------------------1-1-1-1-------------------------|
C#|-0-0-0-0-0-0-0-0-5-5-5-5-5-5-5-5---------7-7-7-7-5-5-5-5-5-5-5-5-|

10.
G |--------------------------------------------------------------------|
D |--------------------------------------------------------------------|
A |---------------------------------1-1-1-1----------------------------|
C#|-0-0-0-0-0-0-0-0-5-5-5-5-5-5-5-5---------7-7-7-7-5-5-5-5x--5-5-5-5x-|

Outro
11.
G |-------|
D |-------|
A |-------|
C#|-0~----|

Bridge
12.
G |-----------------------------------------------------------------|
D |-----------------------------------------------------------------|
A |-4~--6-4x-4~-4/6~-3~--6-3x-3~-3/4-1~----1x-1~-1-3----------------|--x2
C#|--------------------------------------7-----------7~--6-7x-7~--7-|

13.
G |----------------------------------------------------|
D |----------------------------------------------------|
A |----------------------------------------------------|
C#|-5-5-5-5-5-5-5-5-5-5-5-5-5-5-5-5-5-5-5-5-5-5-5-5-5x-|

Chorus
"Ill follow through again this time..."
14.
G |-----------------------------------------------------------------|
D |-----------------------------------------------------------------|
A |---------------------------------1-1-1-1-------------------------|
C#|-0-0-0-0-0-0-0-0-5-5-5-5-5-5-5-5---------7-7-7-7-5-5-5-5-5-5-5-5-|

15.
G |------------------------------------------------------------------|
D |------------------------------------------------------------------|
A |---------------------------------1-1-1-1--------------------------|
C#|-0-0-0-0-0-0-0-0-5-5-5-5-5-5-5-5---------7-7-7-7-5-5-5-5-xxxx-5-5-|

16.
G |-----------------------------------------------------------------|
D |-----------------------------------------------------------------|
A |---------------------------------1-1-1-1-------------------------|
C#|-0-0-0-0-0-0-0-0-5-5-5-5-5-5-5-5---------7-7-7-7-5-5-5-5-5-5-5-5-|

17.
G |--------------------------------------------------------------------|
D |--------------------------------------------------------------------|
A |---------------------------------1-1-1-1----------------------------|
C#|-0-0-0-0-0-0-0-0-5-5-5-5-5-5-5-5---------7-7-7-7-5-5-5-5x--5-5-5-5x-|

Outro
18.
G |-----------|
D |-----------|
A |-----------|
C#|-0~--------|

Lyrics:

Lying all alone, wishing you would call.
Writing all my thoughts has broken all my bones.
You gave it all up, you threw it all away.
There's nothing I can do.

What do I think of dying?
You know it's even worse than what's in my head.
You don't believe me when I tell you,
I don't want to be a fraud and pretend that everything's fine.
I won't be here when you get home.
I'm not gonna sit here and die.

I'll follow through again this time.
I'll swallow swords, spit out my pride.
I'll be just fine.

You read me like a book.
You know I'm running out of legs to stand on.
I won't believe you when you tell me.
These old habits die so hard.
There's no intervention in sight.
There's no point in calling you.
I'm just gonna stand here and fight.

I'll follow through again this time.
I'll swallow swords, spit out my pride.
I'll be just fine, fine.
You fill my head with endless lies.
You're killing me, I'm killing time.
I'll be just fine.

So, maybe one day the pain will go away,
And I will see your face,
I won't even care.
Changing all the locks 'cause I can't change you.

________________________________________________________

5. My Disaster

Tuning: Drop D (DADG)

Intro
1.
G|---------------------------------------------------|
D|---------------------------------------------------|
A|---------------------------------------------------|
D|----------------------------------------------111x-|

"You crossed the line..."
2.
G|------------------------------------------------------------------------------------|
D|------------------------------------------------------------------------------------|
A|-2222x-11x-------44x--2222x-11x-------------2222x-11x-------44x--2222x-11x----------|
D|-----------1111x----------------1111x-111x------------1111x----------------1111111x-|

Verse
"I wonder where you are..."
3.
G|-------------------------------------------------|
D|-------------------------------------------------|
A|-------------------------222x--------------------|
D|-111x--------111x--------------------111x--------|

4.
G|----------------------------------------------------|
D|-------------------------------------------11111111-|
A|-------------------------222x-----------------------|
D|-111x--------111x--------------------111x-----------|

Chorus
"You say you're done..."
5.
G|-------------------------------------------------------------------------|
D|-------------------------------------------------------------------------|
A|-22222222-22221111-------------------22222222-22221111-------------------|
D|-------------------11111111-11111111-------------------11111111-11111111-|

"Running in circles..."
6.
G|-------------------------------------------------------------------------|
D|-------------------------------------------------------------------------|
A|-44444444----------------------------22222222-22221111-------------------|
D|----------44443333-11111111-11111111-------------------11111111-11111111-|

Verse
"I still wonder where you are..."
7.
G|-------------------------------------------------|
D|-------------------------------------------------|
A|-------------------------222x--------------------|
D|-111x--------111x--------------------111x--------|

8.
G|----------------------------------------------------|
D|-------------------------------------------11111111-|
A|-------------------------222x-----------------------|
D|-111x--------111x--------------------111x-----------|

Chorus
"You say you're done..."
9.
G|-------------------------------------------------------------------------|
D|-------------------------------------------------------------------------|
A|-22222222-22221111-------------------22222222-22221111-------------------|
D|-------------------11111111-11111111-------------------11111111-11111111-|

"Running in circles..."
10.
G|-------------------------------------------------------------------------|
D|-------------------------------------------------------------------------|
A|-44444444----------------------------22222222-22221111-------------------|
D|----------44443333-11111111-11111111-------------------11111111-11111111-|

Outro
"You crossed the line..."
11.
G|---------------------------------------------------------------------------------------------|
D|---------------------------------------------------------------------------------------------|
A|-2222x-11x-------44x--2222x-11x-------------2222x-11x-------44x--2222x-11x-------------------|
D|-----------1111x----------------1111x-111x------------1111x----------------11111111-11111111-|

Bridge
12.
G|-------------------------------------------------------------------------|
D|-------------------------------------11111111-11111111-11111111----------|
A|-22222222-22222222-22222222-44444444----------------------------44444444-|
D|-------------------------------------------------------------------------|

13.
G|-------------------------------------------------------------------------|
D|----------------------------------------------------------------11111111-|
A|-22222222-22222222-22222222-11111111-------------------------------------|
D|-------------------------------------11111111-11111111-11111111----------|

14.
G|-------------------------------------------------------------------------|
D|-------------------------------------11111111-11111111-11111111----------|
A|-22222222-22222222-22222222-44444444----------------------------44444444-|
D|-------------------------------------------------------------------------|

15.
G|-------------------------------------------------------------------------|
D|-------------------------------------------------------------------------|
A|-22222222-22222222-22222222-11111111-------------------------------------|
D|-------------------------------------11111111-11111111-11111111-11111111-|

16.
G|---------------------------------------------------|
D|---------------------------------------------------|
A|---------------------------------------------------|
D|----------------------------------------------111x-|

Chorus
"You say you're done..."
17.
G|-------------------------------------------------------------------------|
D|-------------------------------------------------------------------------|
A|-22222222-22221111-------------------22222222-22221111-------------------|
D|-------------------11111111-11111111-------------------11111111-11111111-|

"Running in circles..."
18.
G|-------------------------------------------------------------------------|
D|-------------------------------------------------------------------------|
A|-44444444----------------------------22222222-22221111-------------------|
D|----------44443333-11111111-11111111-------------------11111111-11111111-|

Outro
"You were my disaster..."
19.
G|----------------------------------------------------------------------|
D|-111x--111x----111x--111x---------------------------------------------|
A|-----------------------------222x--222x----111x-----------------------|
D|-------------------------------------------------444x--33--111x--111x-|

Lyrics:

You crossed the line
You're running in circles
Now you lost your self control
You medicate
So you can fall asleep
Your mind just won't shut down

I wonder where you are
I wonder if you found your other self
Or are you still somebody else
There's so much bottled up inside
And if it's shaken up it's going to explode
You can't stop it, you just can't stop it

You say you're done
You swear you've gave it up
Running in circles, you don't even care that you're going nowhere
You hate yourself

I still wonder where you are
I wonder if the forks still in your side
Or did you pull it out in time
And now it starts to overflow
And spill its guts and ruin someones soul
You can't stop it, you just can't stop it

Lets go!

You were my disaster, I can't stop chasing after

___________________________________________________________

6. Still Dreaming

Tuning: Down half step (Only E) --> EbADG

Intro
1.
G |--------------------------------------------------------------------------|
D |--------------------------------------------------------------------------|
A |-33-3-3-311-1-1h3p1-----------------33-3-3-311-1-1h3p1----------------111-|
Eb|--------------------55-5-5-555-5-5-5-------------------55-5-5-555-5-5-----|

Verse
"Two AM, I low down sleep in slumber..."
2.
G |------------------------------------------------------------------------|
D |------------------------------------------------------------------------|
A |-333333333333-1111--------------1111--------------------------------111-|--x3
Eb|-------------------555555555555------2222222222222222-0000000000000-----|

Pre-Chorus
"How am I so lucky I found you..."
3.
G |-----------|
D |-----------|
A |-----------|
Eb|-5~--------|

Chorus
"Sometimes I feel like Im still dreaming..."
4.
G |-------------------------------------------------------------------------|
D |-------------------------------------------------------------------------|
A |-33333333-11111131-------------------33333333-11111131-------------------|
Eb|-------------------55555555-55555555-------------------5-5-5-55-5-5-5-55-|

5.
G |-------------------------------------------------------------------------|
D |-------------------11111111-11111111-------------------------------------|
A |-11111111-33333333-------------------33333333-11111131---------------111-|
Eb|-------------------------------------------------------55555555-5555-----|

Verse
"When we talk about all my old drama..."
6.
G |------------------------------------------------------------------------|
D |------------------------------------------------------------------------|
A |-333333333333-1111--------------1111--------------------------------111-|--x3
Eb|-------------------555555555555------2222222222222222-0000000000000-----|

Pre-Chorus
"You know I would do anything for you..."
7.
G |-----------|
D |-----------|
A |-----------|
Eb|-5~--------|

Chorus
"Sometimes I feel like Im still dreaming..."
8.
G |-------------------------------------------------------------------------|
D |-------------------------------------------------------------------------|
A |-33333333-11111131-------------------33333333-11111131-------------------|
Eb|-------------------55555555-55555555-------------------5-5-5-55-5-5-5-55-|

9.
G |-------------------------------------------------------------------------|
D |-------------------11111111-11111111-------------------------------------|
A |-11111111-33333333-------------------33333333-11111131-------------------|
Eb|-------------------------------------------------------55555555-55555555-|

Bridge
"If you were feeling down..."
10.
G |---------------------------------|
D |---------------------------------|
A |-3~-3x-1~----3-1-----------------|--x4
Eb|-----------------5~-5x-4~--------|

"I'll fight till I die..."
11.
G |-------------------------------------------------------------------------|
D |----------------------------00000000-11111111-33333333-55555555-55555555-|
A |----------11111111-33333333----------------------------------------------|
Eb|-55555555----------------------------------------------------------------|

Chorus
"Sometimes I feel like Im still dreaming..."
12.
G |-------------------------------------------------------------------------|
D |-------------------------------------------------------------------------|
A |-33333333-11111131-------------------33333333-11111131-------------------|
Eb|-------------------55555555-55555555-------------------5-5-5-55-5-5-5-55-|

13.
G |-------------------------------------------------------------------------|
D |-------------------11111111-11111111-------------------------------------|
A |-11111111-33333333-------------------33333333-11111131-------------------|
Eb|-------------------------------------------------------55555555-55555555-|

"Lets run away...."
14.
G |-------------------------------------------------------------------------|
D |-------------------------------------------------------------------------|
A |-33333333-11111131-------------------33333333-11111131-------------------|
Eb|-------------------55555555-55555555-------------------5-5-5-55-5-5-5-55-|

15.
G |--------------------------------------------------------------------|
D |-------------------11111111-11111111--------------------------------|
A |-11111111-33333333-------------------3~--1~--3~--1~---3-1-----------|
Eb|----------------------------------------------------------5~--------|

Lyrics:

Two AM, I lie down deep in slumber.
Feelings are falling downward.
I want to forget.
Waking up, I hear the way your voice sounds.
My heart starts to pound, now...
To the rhythm of yours.
You're so angelic. Your words so symphonic.
Touch your lips to my soul, eat this sorrow away.
How am I so lucky, I found you?

Sometimes, I feel like I'm still dreaming.
It seems like everyday, you're always on my mind.
This is how we stay so connected, so connected
over space and time.

When we talk about all my old drama,
You look at me and wonder how I'm not insane.
Every week the days seem to get longer.
But you know our love gets stronger with every word we say.
Stronger every day.
You know I would do anything for you.

If you are feeling down, you know I feel it, now.
We give each other strength to make it through the darkness.
You take me to a place I never want to leave.
I'm in my deepest dream, I don't ever want to wake up.
I'll fight till I die, I won't say goodbye, and I won't let this pass me by.

Let's run away, run away, run away now.
Let's go away, go away to some place safe.
I want it all, now I want everything.

____________________________________________________

7. The Sand Will Turn To Glass

Tuning: Drop C# (C#ADG)

Intro
1.
G |-----------------------------------------|
D |-----------------------------------------|
A |-----------0~-00-00~---------------------|
C#|-0~-00-00~-----------3~-33-33~/5~-55-55~-|

2.
G |-----------------------------------------------|
D |-----------------------------------------------|
A |-----------0~-00-00~---------------------0~----|
C#|-0~-00-00~-----------3~-33-33~/7~-77-77~-------|

Verse
"I cant believe..."
3.
G |------------------------------------------------------------|
D |------------------------------------------------------------|
A |-----------------------xxx00000000-00000000-22222222-222222-|
C#|-7-0~-0x----7-0~-0x-----------------------------------------|

4.
G |--------------------------------------------------------------|
D |--------------------------------------------------------------|
A |-----------------------xxx00000000-00000000-------------------|
C#|-7-0~-0x----7-0~-0x-------------------------77777777-77777777-|

Chorus
"Lies were spoken..."
5.
G |------------------------------------------------------------------------|
D |----------------------------------------------------------------444442--|
A |-------------------00000000-22222222----------------------------------4-|
C#|-00000000-33333333-------------------00000000-33333333-55555555---------|

6.
G |-------------------------------------------------------------------------|
D |-------------------------------------------------------------------------|
A |-------------------00000000-22222222-------------------------------------|
C#|-00000000-33333333-------------------00000000-33333333-77777777-77777777-|

Verse
"Every day she comes..."
7.
G |------------------------------------------------------------|
D |------------------------------------------------------------|
A |-----------------------xxx00000000-00000000-22222222-222222-|
C#|-7-0~-0x----7-0~-0x-----------------------------------------|

8.
G |--------------------------------------------------------------|
D |--------------------------------------------------------------|
A |-----------------------xxx00000000-00000000-------------------|
C#|-7-0~-0x----7-0~-0x-------------------------77777777-77777777-|

Chorus
"Lies were spoken..."
9.
G |------------------------------------------------------------------------|
D |----------------------------------------------------------------444442--|
A |-------------------00000000-22222222----------------------------------4-|
C#|-00000000-33333333-------------------00000000-33333333-55555555---------|

10.
G |-------------------------------------------------------------------------|
D |-------------------------------------------------------------------------|
A |-------------------00000000-22222222-------------------------------------|
C#|-00000000-33333333-------------------00000000-33333333-77777777-77777777-|

11.
G |------------------------|
D |----------6-6-2-4-2-4-6-|
A |------------------------|
C#|-77777777---------------|

Outro
12.
G |------------------------------------------------------------------------|
D |----------------------------------------------------------------444442--|
A |-------------------00000000-22222222----------------------------------4-|
C#|-00000000-33333333-------------------00000000-33333333-55555555---------|

13.
G |-------------------------------------------------------------------------|
D |-------------------------------------------------------------------------|
A |-------------------00000000-22222222-------------------------------------|
C#|-00000000-33333333-------------------00000000-33333333-77777777-77777777-|

Bridge
"Sunshine turns to dark..."
14.
G |------------------------------------------------------------------|
D |------------------------------------------------------------------|
A |-0~-0-0-0-0-0-0-02~-2-2-2-2-2-2-2---------------------------------|
C#|---------------------------------0~-0-0-0-0-0-0-03~-3-3-3-3-3-3-3-|

15.
G |--------------------------------|
D |--------------------------------|
A |-0~-0-0-0-0-0-0-0---------------|
C#|-----------------7~-7-7-7-7-7-7-|

Verse
"I cant believe..."
16.
G |------------------------------------------------------------|
D |------------------------------------------------------------|
A |-----------------------xxx00000000-00000000-22222222-222222-|
C#|-7-0~-0x----7-0~-0x-----------------------------------------|

17.
G |--------------------------------------------------------------|
D |--------------------------------------------------------------|
A |-----------------------xxx00000000-00000000-------------------|
C#|-7-0~-0x----7-0~-0x-------------------------77777777-77777777-|

Chorus
"Lies were spoken..."
18.
G |------------------------------------------------------------------------|
D |----------------------------------------------------------------444442--|
A |-------------------00000000-22222222----------------------------------4-|
C#|-00000000-33333333-------------------00000000-33333333-55555555---------|

19.
G |-------------------------------------------------------------------------|
D |-------------------------------------------------------------------------|
A |-------------------00000000-22222222-------------------------------------|
C#|-00000000-33333333-------------------00000000-33333333-77777777-77777777-|

20.
G |------------------------------|
D |----------6-6-2-4-2-4-6-------|
A |------------------------------|
C#|-77777777---------------0~-0x-|

Lyrics:

I can’t believe, that I can be
Full of so much hate
Another hero dies, the devil lives
The people hide their shame

Lies were spoken
Bonds were broken
Can he ever change?
Turn your back and
Run away as fast as you can
Don’t mark your name

Every day she comes
That’s what it takes
Add the heart to harm
And this for yourself
You shot the only thing you love

Sunshine turns to darkness everyday
The fragile far from honesty
Losing faith

I can’t believe
No sides in love
Guilty hearts can mend
I know myself
I’ve killed him
I’ll do it again

___________________________________________________

8. Here Today, Gone Tomorrow

Tuning: Half a step down (EbADG)

Verse
"Thirty hour drive from home..."
1.
G |---------------------------------------------------------|
D |---------------------------------------------------------|
A |---------------------------------------------------------|
Eb|-444444-444444-222222-222222-000000-000000-222222-222222-|

2.
G |------------------------------------------------------------|
D |------------------------------------------------------------|
A |------------------------------------------------------------|
Eb|-444444-444444-222222-222222-000000-000000-222-x2xx2xx2xx22-|

Chorus
"Here today, gone tomorrow..."
3.
G |--------------------------------------------------|
D |--------------------------------------------------|
A |-----------0-11111-1111---------------------------|
Eb|-00000-4444------------4-00000-44444-22222-22224x-|

"Dont be sad..."
4.
G |----------------------------------------------|
D |----------------------------------------------|
A |-----------0-11111-1111-----------------------|
Eb|---000-4444------------4-00000-44444-22222-2x-|

Verse
"An icy rode with no remorse..."
5.
G |---------------------------------------------------------|
D |---------------------------------------------------------|
A |---------------------------------------------------------|
Eb|-444444-444444-222222-222222-000000-000000-222222-222222-|

6.
G |------------------------------------------------------------|
D |------------------------------------------------------------|
A |------------------------------------------------------------|
Eb|-444444-444444-222222-222222-000000-000000-222-x2xx2xx2xx22-|

Chorus
"Here today, gone tomorrow..."
7.
G |--------------------------------------------------|
D |--------------------------------------------------|
A |-----------0-11111-1111---------------------------|
Eb|-00000-4444------------4-00000-44444-22222-22224x-|

"Dont be sad..."
8.
G |-------------------------------------------------|
D |-------------------------------------------------|
A |-----------0-11111-1111--------------------------|
Eb|---000-4444------------4-00000-44444-22222-22224-|

"I wont forget..."
9.
G |-----------------------------------------------------------|
D |-----------------------------------------------------------|
A |-----------------------------------------------------------|
Eb|-00004-22224-44444444-4444442--00004-22224-22-000000000000-|

Bridge
"All my life..."
10.
G |------------------------------------------|
D |------------------------------------------|
A |------------------------------------11111-|--x4
Eb|-4-4-44-4-2-2-22-2-5-5-55-5--00000--------|

"Here today gone tomorrow..."
11.
G |-------------------------------|
D |-------------------------------|
A |-------------------------------|
Eb|-0~------------------------2-4-|

Chorus
"Here today, gone tomorrow..."
12.
G |--------------------------------------------------|
D |--------------------------------------------------|
A |-----------0-11111-1111---------------------------|
Eb|-00000-4444------------4-00000-44444-22222-22224x-|

"Dont be sad..."
13.
G |-------------------------------------------------|
D |-------------------------------------------------|
A |-----------0-11111-1111--------------------------|
Eb|---000-4444------------4-00000-44444-22222-22224-|

"I wont forget..."
14.
G |----------------------------------------------------------------|
D |----------------------------------------------------------------|
A |----------------------------------------------------------------|
Eb|-00004-22224-44444444-4444442--00004-22224-22-44444444-44444442-|

"I wont forget..."
15.
G |----------------------------------------------------------------|
D |----------------------------------------------------------------|
A |----------------------------------------------------------------|
Eb|-00004-22224-44444444-4444442--00004-22224-22-00000000000000-4x-|

16.
G |-----------------|
D |-----------------|
A |-----------------|
Eb|-0~-0~-0~--------|

Lyrics:

Thirty hour drive from home.
Think I'd feel so alone, that couldn't be less true.
Family travelling by my side.
Lifeline friends we can't deny.
See the world with you.

Here today, gone tomorrow.
We're saying our goodbyes.
Drive away from the past.
Don't be sad, don't feel sorrow.
The memories in our hearts, I won't forget.

An icy road with no remorse.
A metal box drifting off course is taking everything.
I can't believe we lost you,
I can't feel any worse now.
This must be a dream.
When will someone wake me?

I won't forget.
It's in our hearts, it's in our hearts

All my life, I've never felt so strong as when we're all together.
All my days, I've never felt so powerless when you were taken away.
There's no one in this world with so much love and so much passion.
We'll say goodbye, but we won't forget the liberty and fortitude.

____________________________________________________________

9. Vanity And Greed

Tuning: Drop D (DADG)

Verse
"Dont say you dont miss me yet..."
1.
G|------------------------------------------------------------|
D|------------------------------------------------------------|
A|-111-1~-111-111-1~-111-111-1~-111-----------------------0-0-|--x2
D|----------------------------------444-4~-444-444-4~-444-----|

"Im taking back my choices..."
2.
G|-------------------------------|
D|-------------------------------|
A|-------------------------------|
D|-44444x-444x----44444x-444x----|

"Ive seen the bravest lions shy away..."
3.
G|------------------------------------------------------------|
D|------------------------------------------------------------|
A|-111-1~-111-111-1~-111-111-1~-111-----------------------0-0-|
D|----------------------------------444-4~-444-444-4~-444-----|

4.
G|------------------------------------------------------------|
D|------------------------------------------------------------|
A|-111-1~-111-111-1~-111-111-1~-111--------444-444-4~-444-0-0-|
D|----------------------------------444-4~--------------------|

Pre-Chorus
"Dont let me take us now..."
5.
G|--------------|
D|--------------|
A|-11111111-1~x-|
D|--------------|

Chorus
"Dont say goodnight..."
6.
G|-------------------------------------------------------------------------|
D|-------------------------------------------------------------------------|
A|-------------------------------------------------------------------------|
D|-44444444-44444444-44444444-33333333-11111111-11111111-11111111-11111111-|

7.
G|-------------------------------------------------------------------------|
D|-------------------------------------------------------------------------|
A|-22222222-22222222-11111111-11111111-22222222-22222222-44444444-55555555-|
D|-------------------------------------------------------------------------|

Verse
"Ill sell you every ounce of honesty..."
8.
G|------------------------------------------------------------|
D|------------------------------------------------------------|
A|-111-1~-111-111-1~-111-111-1~-111-----------------------0-0-|
D|----------------------------------444-4~-444-444-4~-444-----|

9.
G|------------------------------------------------------------|
D|------------------------------------------------------------|
A|-111-1~-111-111-1~-111-111-1~-111--------444-444-4~-444-0-0-|
D|----------------------------------444-4~--------------------|

10.
G|-------------------------------|
D|-------------------------------|
A|-------------------------------|
D|-44444x-444x----44444x-444x----|

Chorus
"Dont say goodnight..."
11.
G|-------------------------------------------------------------------------|
D|-------------------------------------------------------------------------|
A|-------------------------------------------------------------------------|
D|-44444444-44444444-44444444-33333333-11111111-11111111-11111111-11111111-|

12.
G|-------------------------------------------------------------------------|
D|-------------------------------------------------------------------------|
A|-22222222-22222222-11111111-11111111-22222222-22222222-44444444-55555555-|
D|-------------------------------------------------------------------------|

Bridge
"Here's my advice..."
13.
G|--------------------------------------|
D|--------------------------------------|
A|-66666666\4444/6666\22222222-22222222-|--x4
D|--------------------------------------|

14.
G|------------------------------------|
D|------------------------------------|
A|-6~-------4~---6~---22222222-44444x-|
D|------------------------------------|

Chorus
"Dont say goodnight..."
15.
G|-------------------------------------------------------------------------|
D|-------------------------------------------------------------------------|
A|-------------------------------------------------------------------------|
D|-44444444-44444444-44444444-33333333-11111111-11111111-11111111-11111111-|

16.
G|-------------------------------------------------------------------------|
D|-------------------------------------------------------------------------|
A|-22222222-22222222-11111111-11111111-22222222-22222222-44444444-5555xxxx-|
D|-------------------------------------------------------------------------|

"Dont say goodnight..."
17.
G|-------------------------------------------------------------------------|
D|-------------------------------------------------------------------------|
A|-66666666-66666666-66666666-55555555-33333333-33333333-33333333-33333333-|
D|-------------------------------------------------------------------------|

18.
G|-------------------------------------------------------------------------|
D|-------------------------------------------------------------------------|
A|-------------------------------------------------------11111111-22222222-|
D|-66666666-66666666-55555555-55555555-66666666-66666666-------------------|

Outro
"Im taking back my choices..."
19
G|-------------------------------|
D|-------------------------------|
A|-------------------------------|--x2
D|-44444x-444x----44444x-444x----|

20.
G|--------------------|
D|--------------------|
A|----------1~--------|
D|-4~-4~-4~-----------|

Lyrics:

Don't say you don't miss me yet
I must concede
There's something I have to explain
It isn't easy playing your way
I can't even begin to say

I'm taking back my choices
I'm gonna take us down

I've seen the bravest lions shy away
I've seen the tallest tress fall down
I've made a hobby of self-deprecating
my honesty and my integrity

Don't let me take us now

Don't say goodnight, Say goodbye
You can't mend us now
You can't fix a shattered heart
Don't even try

I'll sell you every ounce of honesty
you'll buy it all and lie with me
I can't pretend there's any truth to me
It's all just vanity and greed

Let me take and call you a crier
I'm gonna need it more

Here's my advice if you know what's good for you
Don't let your guard down, don't let your guard down

Don't let me drag you down

I'm taking back my choices
I'm gonna drag us down
Let me take and call you a crier
I'm gonna need it more

______________________________________________________________

10. Love With Caution

Tuning: Drop C# (C#ADG)

Intro
1.
G |-------------------------------------|
D |-------------------------------------|
A |-------------------------------------|
C#|-55-7-7-9-9-7-7-xx-55-7-7-5-55555555-|

Verse
"The river's running fast right now..."
2.
G |-------------------------------------|
D |-------------------------------------|
A |-------------------------------------|--x4
C#|-00000000-00000000-55555555-55555555-|

Pre-Chorus
3.
G |--------------------------------------|
D |--------------------------------------|
A |--------------------------------------|--x2
C#|-9999-7777-55555555-55555555-55555555-|

4.
G |-----------------------------|
D |-----------------------------|
A |-----------------------------|
C#|-9999-7777-00000000-00000000-|

Chorus
"Im not ready to swim..."
5.
G |-------------------------------------------------------------------------|
D |-------------------------------------------------------------------------|
A |-------------------------------------------------------------------------|
C#|-55-7-7-9-9-7-7-xx-55-7-7-9-9-7-7-xx-55-7-7-9-9-7-7-xx-55-7-7-5-55555555-|

Verse
"Theres something to be said for luck..."
6.
G |-------------------------------------|
D |-------------------------------------|
A |-------------------------------------|--x4
C#|-00000000-00000000-55555555-55555555-|

Pre-Chorus
7.
G |--------------------------------------|
D |--------------------------------------|
A |--------------------------------------|--x2
C#|-9999-7777-55555555-55555555-55555555-|

8.
G |-----------------------------|
D |-----------------------------|
A |-----------------------------|
C#|-9999-7777-00000000-00000000-|

Chorus
"Im not ready to swim..."
9.
G |-------------------------------------------------------------------------|
D |-------------------------------------------------------------------------|
A |-------------------------------------------------------------------------|
C#|-55-7-7-9-9-7-7-xx-55-7-7-9-9-7-7-xx-55-7-7-9-9-7-7-xx-55-7-7-5-55555555-|

10.
G |----------------------------|
D |----------------------------|
A |----------------------------|
C#|-55555555-77777777-77777777-|

Bridge
"I remember a day..."
11.
G |--------------------------------------|
D |--------------------------------------|
A |--------------------------------------|--x2
C#|-55555555-00000000-44444444-9999-7777-|

"Take my hand..."
12.
G |-------------------------------------------------------------------------|
D |-------------------------------------------------------------------------|
A |-------------------------------------------------------------------------|--x2
C#|-55555555-55555555-77777777-77777777-99999999-99999999-77777777-77777777-|

13.
G |-----------|
D |-----------|
A |-----------|
C#|-5x--------|

Chorus
"Im not ready to swim..."
14.
G |-------------------------------------------------------------------------|
D |-------------------------------------------------------------------------|
A |-------------------------------------------------------------------------|--x2
C#|-55-7-7-9-9-7-7-xx-55-7-7-9-9-7-7-xx-55-7-7-9-9-7-7-xx-55-7-7-5-55555555-|

15.
G |----------------------------|
D |----------------------------|
A |----------------------------|
C#|-55555555-77777777-77777777-|

Outro
16.
G |------------------------|
D |------------------------|
A |------------------------|
C#|-9999-7777-xx-5~--------|

Lyrics:

The river's running fast right now.
It's the time of year the water cleanses itself.
Running wild, but always in control.
And now's the time to sever the ties.
To habits that we think suck.

Break away this fear,
Until it disappears.
I'm not ready to swim, I'm not going to sink.
I just want to float through the sea.
Are you holding me down?
Are you holding me up?
Or are you slowly drowning me?

There's something to be said for luck.
It's better than being good.
When half of being good is being lucky, anyways.
We're spreading out, we're harder to hit.
Become a moving target,
Drop your burden,
And abandon it.

I remember the day when I could walk right down the streets
And feel so confident, and know everything's okay.
Take my hand, don't let go, but please remember, hearts can grow.
We still have to take it slow.
I love with caution and trust, alone.

____________________________________________________________

11. True Romance

Tuning: EADG

Intro
1.
G|---------------------------------------------------|
D|---------------------------------------------------|
A|-6~----4~h6-8-6~----4~h6-8-9~----9~----8~----8~--8-|--x2
E|---------------------------------------------------|

Verse
"Im not here to judge you..."
2.
G|-----------------------------------------|
D|-----------------------------------------|
A|-6~--------2~--------6~--------4~--------|
E|-----------------------------------------|

"Beautiful girl..."
3.
G|-------------------------------------------------|
D|-------------------------------------------------|
A|-------2~----------------------2~----------------|--x2
E|-4~----------2~----1-2-2-4~----------2~----1-2-2-|

*Really softly!
4.
G|-------------------------|
D|-------------------------|
A|-------2~----------------|--x4
E|-4~----------2~----1~----|

Chorus
"I may not always be perfect..."
5.
G|--------------------------------------------------------------|
D|--------------------------------------------------------------|
A|-6~-66~--4~-6~-8~-6~-66~--4~-6~-8~-9~-99-9~-99-8~-88\4~-6~-8~-|--x2
E|--------------------------------------------------------------|

Verse
"Husband cant bear..."
6.
G|-------------------------------------------------|
D|-------------------------------------------------|
A|-------2~----------------------2~----------------|--x2
E|-4~----------2~----1-2-2-4~----------2~----1-2-2-|

7.
G|-------------------------|
D|-------------------------|
A|-------2~----------------|--x4
E|-4~----------2~----1~----|

Chorus
"I may not always be perfect..."
8.
G|--------------------------------------------------------------|
D|--------------------------------------------------------------|
A|-6~-66~--4~-6~-8~-6~-66~--4~-6~-8~-9~-99-9~-99-8~-88\4~-6~-8~-|--x2
E|--------------------------------------------------------------|

Bridge
9.
G|--------------------------------------------------------|
D|--------------------------------------------------------|
A|-111-2~----111-2~-2444444-111-2~----111-2~-4444x-444444-|--x3
E|--------------------------------------------------------|

10.
G|---------------------------------------------------------------------|
D|---------------------------------------------------------------------|
A|-111-2~----111-2~-2444444-111-2~----111-2~-4444x-444444-4444x-444444-|
E|---------------------------------------------------------------------|

11.
G|---------------------------------------------------|
D|---------------------------------------------------|
A|-6~----4~h6-8-6~----4~h6-8-9~----9~----8~----8~--8-|--x2
E|---------------------------------------------------|

Chorus
"I may not always be perfect..."
12.
G|--------------------------------------------------------------|
D|--------------------------------------------------------------|
A|-6~-66~--4~-6~-8~-6~-66~--4~-6~-8~-9~-99-9~-99-8~-88\4~-6~-8~-|--x8
E|--------------------------------------------------------------|

Outro
"Beautiful girl..."
13.
G|-------------------------------------------------|
D|-------------------------------------------------|
A|-------2~----------------------2~----------------|
E|-4~----------2~----1-2-2-4~----------2~----1-2-2-|

14.
G|-------------------------------------------|
D|-------------------------------------------|
A|-------2~----------------------2~----------|
E|-4~----------2~----1-2-2-4~----------2~----|

Lyrics:

I'm not here to judge you,
I'm just here to tell you what you have done wrong.
Beautiful girl looking her best, takes off a towel,
Puts on a dress.
Fixes her hair to look good for someone.
Waits in a car to go to a motel.
...to a motel.

I may not always be perfect.
But I'll always try.
Will you say your prayers, just to be honest with yourself?
Will you save your soul? Is this what you wanted all along?

Husband can't bear to just lie to himself.
Stock market falls and he loses it all,
He sleeps alone for the third time this week.
He's become numb, he just wants this to be.

Blood on the floor.
What have you done?
Heart in your hands.
What have you done?

Beautiful girl sleeps by herself.
Half the bed's cold, she knows it's her fault.
She's given in and admitted defeat.
She'll be fine.

_____________________________________________________________

12. Rain Will Fall

Tuning: EADG

Intro
1.
G|---------------------------------------|
D|---------------------------------------|
A|-244x--4x-44----------22x--2x-2222-222-|
E|------------00x--0x-00-----------------|

Verse
"It was just another day..."
2.
G|---------------------------------------|
D|---------------------------------------|
A|-244x--4x-44----------22x--2x-2222-222-|--x3
E|------------00x--0x-00-----------------|

"And I coudnt bare to walk another step with this inside..."
3.
G|----------------------------------------|
D|----------------------------------------|
A|-244x--4x-44----------22222222-22222222-|
E|------------00x--0x-00------------------|

Chorus
"The rain will fall..."
4.
G|-------------------------------------------------------------------------|
D|-------------------------------------------------------------------------|
A|-44444444----------22222222-2222-----44444444----------22222222-2x-------|
E|----------00000000--------------4444----------00000000-------------------|

Outro
5.
G|-------|
D|-------|
A|-------|
E|-4~-0~-|

Verse
"There's some things you dont just say..."
6.
G|-------------------------------------------------------------------------|
D|-------------------------------------------------------------------------|
A|-44444444----------22222222-22222222-44444444----------22222222-22222222-|--x2
E|----------00000000----------------------------00000000-------------------|

Chorus
"The rain will fall..."
7.
G|-------------------------------------------------------------------------|
D|-------------------------------------------------------------------------|
A|-44444444----------22222222-2222-----44444444----------22222222-2222-----|
E|----------00000000--------------4444----------00000000--------------4444-|

"This is the last thing left to do..."
8.
G|-------------------------------------------------------------------------|
D|-------------------------------------------------------------------------|
A|-44444444-22222----------------------44444444-22222----------------------|
E|---------------4-2-00000000-22222222---------------4-2-00000000-22222222-|

Outro
"I know I cant be the one..."
9.
G|------------------------------------------------------------------------|
D|------------------------------------------------------------------------|
A|-4-4-4-4--2-2------------------------4-4-4-4--2-2-----------------------|
E|--------------242--0-0-0-0--2-2-2-2---------------242--0-0-0-0--2-2-2-2-|

Bridge
10.
G|-----------------------------------------------------------------------|
D|-----------------------------------------------------------------------|
A|-444x---2x--------------------------44x---22x--------------------------|
E|-------------0x-0022x---4x---0x-2x-0------------0x-0022x--4x---0x-2x-0-|

"Dont be suprised Im gonna let you run away..."
11.
G|-------------------------------------------------------------------------|
D|-------------------------------------------------------------------------|
A|-44444444-222222---------------------44444444-222222---------------------|
E|----------------00-22222222-44444444----------------00-22222222-44444444-|

12.
G|---------------------------------------------------------------------|
D|---------------------------------------------------------------------|
A|-44444444-222222---------------------44444444-222222-----------------|
E|----------------00-22222222-44444444----------------0x-0022~---4~-0~-|

Chorus
"The rain will fall..."
13.
G|-------------------------------------------------------------------------|
D|-------------------------------------------------------------------------|
A|-44444444----------22222222-2222-----44444444----------22222222-2222-----|
E|----------00000000--------------4444----------00000000--------------4444-|

"This is the last thing left to do..."
14.
G|-------------------------------------------------------------------------|
D|-------------------------------------------------------------------------|
A|-44444444-22222----------------------44444444-22222----------------------|
E|---------------4-2-00000000-22222222---------------4-2-00000000-22222222-|

Outro
"I know I cant be the one..."
15.
G|-------------------------------------------------------------------------|
D|-------------------------------------------------------------------------|
A|-4-4-4-4-----------2-2-2-2--2-2------4-4-4-4-----------2-2-2-2--2-2------|
E|----------0-0-0-0---------------4-4-----------0-0-0-0---------------4-4--|

16.
G|-------------------|
D|-------------------|
A|-4~----7~----2~----|
E|-------------------|

Lyrics:

It was just another day
Cars were driving by and people lined the streets
We were walking side by side
But there was something on my mind
And I couldn't bear to walk another step with this inside

The rain will fall and wash it all away
Our fears will call

There's some things you just don't say
But when it's been so long there's just no other way
I can't do this anymore, I can't pretend that I'm not bored
And I don't want to spend the rest of my life out of my control

The rain will fall and wash it all away
Our fears will call and make us run away

This is the last thing left to do
And if there's one things I have learned
You can only lie to yourself for so long
Until it becomes truth

I know I can't be the one left holding the bag
I wish I could not make it hurt so bad

Don't be surprised, Im gonna let you run away
Don't turn around, I'm gonna walk the other way
I'm not going to chase you down the street
I won't chase you, I won't chase you
I won't chase you down the street

______________________________________________________________________

13. Falling Down

Tuning: Drop D (DADG)

Intro
1.
G|---------------------|
D|-----1~--------------|
A|---------------------|
D|-1~------5~-6~-5~-1~-|

Verse
"Cut through the skin..."
2.
G|-----------------------------------------------------|
D|-------------------------------------1~--------------|
A|--------------3~-------------------------------------|--x2
D|-33~-33~-33~-3---33~-33~-33~-33~-1~------5~-6~-5~-1~-|

Chorus
"Silence hurts more than the worse sound..."
3.
G|----------------------------------------------|
D|--------------------------------3~--5~--6-5---|
A|-444444-444444-444444-3-4-4-6~--------------6-|--x2
D|----------------------------------------------|

Verse
"Fill out the papers..."
4.
G|-----------------------------------------------------|
D|-------------------------------------1~--------------|
A|--------------3~-------------------------------------|--x2
D|-33~-33~-33~-3---33~-33~-33~-33~-1~------5~-6~-5~-1~-|

Chorus
"Silence hurts more than the worse sound..."
5.
G|----------------------------------------------|
D|--------------------------------3~--5~--6-5---|
A|-444444-444444-444444-3-4-4-6~--------------6-|--x2
D|----------------------------------------------|

Brigde
"I can see you and me..."
6.
G|------------------------------------------------------|
D|-----------------------------------------------333333-|
A|--------------333133133133--------------333333--------|
D|-666666666666--------------666666666666---------------|

7.
G|------------------------------------------------------|
D|------------------------------------------------------|
A|--------------333133133133----------------------------|
D|-666666666666--------------666666666666-5~-6~-5~-1~---|

8.
G|------------------------------------------------------|
D|-----------------------------------------------333333-|
A|--------------333133133133--------------333333--------|
D|-666666666666--------------666666666666---------------|

9.
G|------------------------------------------------------|
D|------------------------------------------------------|
A|--------------333133133133----------------------------|
D|-666666666666--------------666666666666-5~-6~-5~-1~---|

10.
G|-------------------------|
D|-------------------------|
A|-------------------------|
D|-5~-6~-5~-1~-5~-6~-5~-1~-|

2:22
11.
G|----------------------------------------------------|
D|----------------------------------------------------|
A|----------------------------------------------------|
D|-3~--------33~--33~--33~--33~--33~--111111-1~-1~-1~-|

Chorus
"Silence hurts more than the worse sound..."
12.
G|----------------------------------------------|
D|--------------------------------3~--5~--6-5---|
A|-444444-444444-444444-3-4-4-6~--------------6-|--x3
D|----------------------------------------------|

"Say Im wrong..."
13.
G|----------------------------------------------------|
D|--------------------------------3~------------------|
A|-444444-444444-444444-3-4-4-6~----------------------|
D|------------------------------------5~-6~-5~-1~-3~x-|

Lyrics:

Cut through the skin with knives of words
I'm still bleeding out questions of nerve
What will it take to sort this out?
It's still lodging it's blade in my heart

Silence hurts more than the worst sound
Now it's too late to call
Say I'm wrong and throw the first round
I'm still falling down

Fill out the paper, File the forms
And I'm signing you up for the war
This is the way we've learned to cope
Insecurities take over hope

I can see, I can see you and me on the water tonight
Blood red sky lets me know you'll be here by my side
And tomorrow we will wake up, We can start again
We have so much left to learn from all of our mistakes

You can trust me
I won't give up
I won't let you go

_____________________________________________________________

Thx for prefering me and for rating and for everything ;)

+++++++++++++++++++++++++++++++++
| RaiLeff                       |
| Underground__Dora@Hotmail.Com |
+++++++++++++++++++++++++++++++++
4 comments total. Showing first comments.
0 reply
carrotcake wrote on July 10 2007, 01:03 pm

I bought my cd from best buy and it didn't come with two two extra, I didn't even know there were two extra tracks until like a day after I bought it lol, but anyway very good tab, bad album, but a good tab lol

0 reply
RaiLeff wrote on July 10 2007, 01:54 pm

hahah thanx man!
bad luck on the 2 tracks! :S

0 reply
carrotcake wrote on September 3 2007, 10:36 am

haha, hey in Bodies And Words and The Sand Will Turn To Glass you put D# beside the bars instead of C# lol

I want to post or [tab]
guest
You may want to rate the tab now too:
select rating
Please do not post tabs as comments. Select "correction" instead!