Oops, an error
Loading. Please wait.

Burning Hearts Acoustic Tab

ver2
ver2

Whole song

More versions @911Tabs.com
1,639 views 6 this week
no commentswrite comment
1 2 3 4 5
please rate
add to favorites launch autoscroll
font size
0
reset
Autoscroll
+/-
esc
set tempo
stop
Contributor
Difficulty
Tuning
intermediate
D# G# C# F# A# D#
WARNING: You are trying to view
                                    content from Ultimate-Guitar.com
                                    in an unauthorized application,
                                    which is prohibited.

                                    Please use an official Ultimate
                                    Guitar Tabs application for iPhone,
                                    iPad or Android to access legitimate
                                    chords, guitar, bass, and drum tabs
                                    from Ultimate-Guitar.com database.

                                    Type "ultimate guitar tabs" in Apple
                                    App Store's or Android Market's
                                    search to find the application.
Tabbed by: Joshua Garcia (joshuag523@aol.com)

Tabs for the song: Burning Hearts (Acoustic) by Silverstein
Please rate and let me know if you have any corrections. Thank you.


**NOTE - This was taken from my full album tab, which can be found here: 
http://tabs.ultimate-guitar.com/s/silverstein/rescue_album_tab.htm **


Tuning: Half-Step Down (D# G# C# F# A# D#)



Intro
Guitar 1:
D#||------------------------------------|------------------------------------|
A#||-----------------0-----0-----0------|-----------------0-----0-----0------|
F#||------7--7---7-----7-----7-----7----|------7--7---7-----7-----7-----7----|
C#||----7----7-----7-----7-----7-----7--|----7----7-----7-----7-----7-----7--|
G#||--0------x--------------------------|--0------x--------------------------|
D#||---------7--------------------------|---------7--------------------------|


D#||-------------0-----0-----0-----0----|-------------0-----0-----0-----0----|
A#||---------------3-----3-----3-----3--|---------------3-----3-----3-----3--|
F#||------2--0-------0-----0-----0------|------2--0-------0-----0-----0------|
C#||----2----0--------------------------|----2----0--------------------------| x2
G#||--0------x--------------------------|--0------x--------------------------|
D#||---------3--------------------------|---------3--------------------------|


Guitar 2:
D#||------------------------------------|------------------------------------|
A#||------------------------------------|------------------------------------|
F#||------7--7~-------------------------|------7--7~-------------------------|
C#||----7----7~-------------------------|----7----7~-------------------------|
G#||--0------x--------------------------|--0------x--------------------------|
D#||---------7~-------------------------|---------7~-------------------------|


D#||------------------------------------|------------------------------------|
A#||------------------------------------|------------------------------------|
F#||------2--0~-------------------------|------2--0~-------------------------|
C#||----2----0~-------------------------|----2----0~-------------------------|
G#||--0------x--------------------------|--0------x--------------------------|
D#||---------3~-------------------------|---------3~-------------------------|


D#||------------------------------------|------------------------------------|
A#||------------------------------------|------------------------------------|
F#||------7--------7~------7~------7~---|------7--------7~------7~------7~---|
C#||----7----------7~------7~------7~---|----7----------7~------7~------7~---|
G#||--0------------x-------x-------x----|--0------------x-------x-------x----|
D#||---------7~----7~------7~------7~---|---------7~----7~------7~------7~---|


D#||------------------------------------|------------------------------------|
A#||------------------------------------|------------------------------------|
F#||------2--------0~------0~------0~---|------2--------0~------0~------0~---|
C#||----2----------0~------0~------0~---|----2----------0~------0~------0~---|
G#||--0------------x-------x-------x----|--0------------x-------x-------x----|
D#||---------3~----3~------3~------3~---|---------3~----3~------3~------3~---|


Guitar 1/2:
D#||-------------|
A#||-------------|
F#||------7--7---|
C#||----7----7---|
G#||--0------x---|
D#||---------7---|



Verse
Guitar 1/2:
D#||--------------------------|
A#||---3--33--3333--33--333---|
F#||---0--00--0000--00--000---|
C#||---0--00--0000--00--000---|
G#||---x--xx--xxxx--xx--xxx---|
D#||---3--33--3333--33--333---|


D#||--------------0--00--000------------------------|
A#||--3--33--333--3--33--333--3--33--3333--33--333--|
F#||--4--44--444--4--44--444--0--00--0000--00--000--|
C#||--4--44--444--2--22--222--0--00--0000--00--000--|
G#||--2--22--222--------------x--xx--xxxx--xx--xxx--|
D#||--------------------------3--33--3333--33--333--|


Guitar 1:
D#||---------------------------------------------------|
A#||---------------------------------------------------|
F#||--------9--7-----6-7--6------------11/12---11--9~--|
C#||------9------------------9---7~----x-/x----x---x---|
G#||----9------------------------------9-/10---9---7~--|
D#||--7------------------------------------------------|


D#||---------------------------------------------------|
A#||---------------------------------------------------|
F#||--------9--7-----6-7--6------------11~---9~---7~---|
C#||------9------------------9---7~----x-----x----x----|
G#||----9------------------------------9-~---7~---5~---|
D#||--7------------------------------------------------|


Guitar 2:
D#||--------------0--00--000------------------------|
A#||--3--33--333--3--33--333--3--33--3333--33--333--|
F#||--4--44--444--4--44--444--0--00--0000--00--000--|
C#||--x--xx--xxx--2--22--222--0--00--0000--00--000--|
G#||--2--22--222--------------x--xx--xxxx--xx--xxx--|
D#||--------------------------3--33--3333--33--333--|


D#||--------------0--00--000----------------------|
A#||--3--33--333--3--33--333--3--33--33333333333--|
F#||--4--44--444--4--44--444--0--00--00000000000--|
C#||--4--44--444--2--22--222--0--00--00000000000--|
G#||--2--22--222--------------x--xx--xxxxxxxxxxx--|
D#||--------------------------3--33--33333333333--|



Chorus
Guitar 1:
D#||--2-----0-----2----5-----2-----0----2-----0-----2----5-----2-----0----|
A#||----3-----3-----3----3-----3-----3----3-----3-----3----3-----3-----3--|
F#||------4-----4----------4-----4----------2-----2----------2-----2------|
C#||----------------------------------------------------------------------|
G#||----------------------------------------------------------------------|
D#||----------------------------------------------------------------------|


D#||--3-----2-----0----2-----0--------------------------------------------|
A#||----0-----0-----0----0-----0---3---5-----3h5-----3---2-----2-----2----|
F#||-------------------------------------2-------2-----2---2-----2-----2--|
C#||------4-----4----------4-----4---------0-------0---------0-----0------|
G#||----------------------------------------------------------------------|
D#||----------------------------------------------------------------------|


D#||--2-----0-----2----5-----2-----0----2-----0-----2----5-----2-----5----|
A#||----3-----3-----3----3-----3-----3----3-----3-----3----3-----3-----3--|
F#||------4-----4----------4-----4----------2-----2----------2-----2------|
C#||----------------------------------------------------------------------|
G#||----------------------------------------------------------------------|
D#||----------------------------------------------------------------------|


D#||--3-----2-----0----2-----0-----------------------------|
A#||----0-----0-----0----0-----0---3---5-----5-----3---2~--|
F#||-------------------------------------2-----2-----2-2~--|
C#||------4-----4----------4-----4---------0-----0---------|
G#||-------------------------------------------------------|
D#||-------------------------------------------------------|


Guitar 2:
D#||---------------------------------------|--------------------------------------|
A#||--33333333----------77777777-----------|--33333333----------2222222222222222--|
F#||--44444444-44444444-77777777-66666666--|--44444444-55555555-2222222222222222--|
C#||--44444444-55555555-77777777-77777777--|--44444444-55555555-2222222222222222--|
G#||--22222222-55555555-55555555-77777777--|--22222222-55555555-0000000000000000--|
D#||-----------33333333----------55555555--|-----------33333333-------------------|


D#||---------------------------------------|--------------------------------|
A#||--33333333----------77777777-----------|--33333333-00000000-222222222~--|
F#||--44444444-44444444-77777777-66666666--|--44444444-00000000-222222222~--|
C#||--44444444-55555555-77777777-77777777--|--44444444-00000000-222222222~--|
G#||--22222222-55555555-55555555-77777777--|--22222222-xxxxxxxx-000000000~--|
D#||-----------33333333----------55555555--|-----------33333333-------------|



Verse
Guitar 1/2:
D#||--------------------------|
A#||---3--33--3333--33--333---|
F#||---0--00--0000--00--000---|
C#||---0--00--0000--00--000---|
G#||---x--xx--xxxx--xx--xxx---|
D#||---3--33--3333--33--333---|


D#||--------------0--00--000------------------------|
A#||--3--33--333--3--33--333--3--33--3333--33--333--|
F#||--4--44--444--4--44--444--0--00--0000--00--000--|
C#||--4--44--444--2--22--222--0--00--0000--00--000--|
G#||--2--22--222--------------x--xx--xxxx--xx--xxx--|
D#||--------------------------3--33--3333--33--333--|


Guitar 1:
D#||---------------------------------------------------|
A#||---------------------------------------------------|
F#||--------9--7-----6-7--6------------11/12---11--9~--|
C#||------9------------------9---7~----x-/x----x---x---|
G#||----9------------------------------9-/10---9---7~--|
D#||--7------------------------------------------------|


D#||---------------------------------------------------|
A#||---------------------------------------------------|
F#||--------9--7-----6-7--6------------11~---9~---7~---|
C#||------9------------------9---7~----x-----x----x----|
G#||----9------------------------------9-~---7~---5~---|
D#||--7------------------------------------------------|


Guitar 2:
D#||--------------0--00--000------------------------|
A#||--3--33--333--3--33--333--3--33--3333--33--333--|
F#||--4--44--444--4--44--444--0--00--0000--00--000--|
C#||--x--xx--xxx--2--22--222--0--00--0000--00--000--|
G#||--2--22--222--------------x--xx--xxxx--xx--xxx--|
D#||--------------------------3--33--3333--33--333--|


D#||--------------0--00--000----------------------|
A#||--3--33--333--3--33--333--3--33--33333333333--|
F#||--4--44--444--4--44--444--0--00--00000000000--|
C#||--4--44--444--2--22--222--0--00--00000000000--|
G#||--2--22--222--------------x--xx--xxxxxxxxxxx--|
D#||--------------------------3--33--33333333333--|



Chorus
Guitar 1:
D#||--2-----0-----2----5-----2-----0----2-----0-----2----5-----2-----0----|
A#||----3-----3-----3----3-----3-----3----3-----3-----3----3-----3-----3--|
F#||------4-----4----------4-----4----------2-----2----------2-----2------|
C#||----------------------------------------------------------------------|
G#||----------------------------------------------------------------------|
D#||----------------------------------------------------------------------|


D#||--3-----2-----0----2-----0--------------------------------------------|
A#||----0-----0-----0----0-----0---3---5-----3h5-----3---2-----2-----2----|
F#||-------------------------------------2-------2-----2---2-----2-----2--|
C#||------4-----4----------4-----4---------0-------0---------0-----0------|
G#||----------------------------------------------------------------------|
D#||----------------------------------------------------------------------|


D#||--2-----0-----2----5-----2-----0----2-----0-----2----5-----2-----5----|
A#||----3-----3-----3----3-----3-----3----3-----3-----3----3-----3-----3--|
F#||------4-----4----------4-----4----------2-----2----------2-----2------|
C#||----------------------------------------------------------------------|
G#||----------------------------------------------------------------------|
D#||----------------------------------------------------------------------|


D#||--3-----2-----0----2-----0-----------------------------|
A#||----0-----0-----0----0-----0---3---5-----5-----3---2~--|
F#||-------------------------------------2-----2-----2-2~--|
C#||------4-----4----------4-----4---------0-----0---------|
G#||-------------------------------------------------------|
D#||-------------------------------------------------------|


Guitar 2:
D#||---------------------------------------|--------------------------------------|
A#||--33333333----------77777777-----------|--33333333----------2222222222222222--|
F#||--44444444-44444444-77777777-66666666--|--44444444-55555555-2222222222222222--|
C#||--44444444-55555555-77777777-77777777--|--44444444-55555555-2222222222222222--|
G#||--22222222-55555555-55555555-77777777--|--22222222-55555555-0000000000000000--|
D#||-----------33333333----------55555555--|-----------33333333-------------------|


D#||---------------------------------------|--------------------------------|
A#||--33333333----------77777777-----------|--33333333-00000000-222222222~--|
F#||--44444444-44444444-77777777-66666666--|--44444444-00000000-222222222~--|
C#||--44444444-55555555-77777777-77777777--|--44444444-00000000-222222222~--|
G#||--22222222-55555555-55555555-77777777--|--22222222-xxxxxxxx-000000000~--|
D#||-----------33333333----------55555555--|-----------33333333-------------|



Bridge
Guitar 1:
D#||----------------------0~-------------|
A#||--3~--------7~--------0~--------3~---|
F#||--4~--------7~--------x---------0~---|
C#||--4~--------7~--------2~--------0~---| x2
G#||--2~--------5~--------2~--------x----|
D#||----------------------0~--------3~---|


Guitar 2:
D#||-------------------------------------------------------------------|
A#||-------------------------------------------------------------------|
F#||-------------------------------------------------------------------|
C#||----0---0---0---0---0---0---0---0---4---4---4---4---4---4---4---4--|
G#||--2---2---2---2---2---2---2---2---5---5---5---5---5---5---5---5----|
D#||-------------------------------------------------------------------|


D#||-------------------------------------------------------------------|
A#||-------------------------------------------------------------------|
F#||-------------------------------------------------------------------|
C#||----5---5---5---5---5---5---5---5---0---0---0---0---0---0---0---0--|
G#||--7---7---7---7---7---7---7---7------------------------------------|
D#||----------------------------------3---3---3---3---3---3---3---3----|


Guitar 1/2:
D#||-------------------------------------------------------------------|
A#||-------------------------------------------------------------------|
F#||-------------------------------------------------------------0000--|
C#||--44444444444444447777777777777777----------------------000000000--|
G#||--22222222222222225555555555555555222222222222222xxxxxxxxxxxxxxxx--|
D#||----------------------------------0000000000000003333333333333333--|
      .........................................................


Interlude
Guitar 1:
D#||-------------------------------------------------------------------|
A#||--------3---------------0---------------3---------------3----------|
F#||----4-------4---4---0-------0---0---0-------0---0---0-------0---0--|
C#||------4-------4-------0-------0-------0-------0-------0-------0----|
G#||--2----------------------------------------------------------------|
D#||------------------0---------------3---------------3----------------|


D#||----------------------------------------------------|
A#||--------3---------------0---------------------------|
F#||----4-------4---4---0-------0---0---------00000000--|
C#||------4-------4-------0-------0-------000000000000--|
G#||--2-----------------------------------xxxxxxxxxxxx--|
D#||------------------0---------------3333333333333333--|



Solo
Guitar 1:
D#||---------------------------------10~--|-------------------------10~--15~--14~--|
A#||--15--14-----15--14----------12~------|--15--14-----15--14------10~--10~--10~--|
F#||---------14---------14-\-12~----------|---------14---------14------------------|
C#||--------------------------------------|----------------------------------------|
G#||--------------------------------------|----------------------------------------|
D#||--------------------------------------|----------------------------------------|


D#||-----10----10----10----10----12----12----12----12--|
A#||--10----10----10----10----10----10----10----10-----|
F#||---------------------------------------------------|
C#||---------------------------------------------------|
G#||---------------------------------------------------|
D#||---------------------------------------------------|


D#||-----14----14----14----14----14----14----14----14--|
A#||--10----10----10----10----10----10----10----10-----|
F#||---------------------------------------------------|
C#||---------------------------------------------------|
G#||---------------------------------------------------|
D#||---------------------------------------------------|


D#||--10-10-10-10-10-10-10-10-12-12-12-12-12-12-12-12--|
A#||--10-10-10-10-10-10-10-10-10-10-10-10-10-10-10-10--|
F#||---------------------------------------------------|
C#||---------------------------------------------------|
G#||---------------------------------------------------|
D#||---------------------------------------------------|


D#||--17-17-17-17-17-17-17-17-17-17-17-17-17-17-17~--|
A#||--19-19-19-19-19-19-19-19-19-19-19-19-19-19-19~--|
F#||-------------------------------------------------|
C#||-------------------------------------------------|
G#||-------------------------------------------------|
D#||-------------------------------------------------|


Guitar 2:
D#||-----------------------------------------------|
A#||--3--33--333-0--00--000--3--33--3333--33--333--|
F#||--4--44--444-0--00--000--0--00--0000--00--000--|
C#||--4--44--444-0--00--000--0--00--0000--00--000--|
G#||--2--22--222-x--xx--xxx--x--xx--xxxx--xx--xxx--|
D#||-------------0--00--000--3--33--3333--33--333--|


D#||-----------------------------------------------|
A#||--3--33--333-5--55--555--3--33--3333--33--333--|
F#||--4--44--444-4--44--444--0--00--0000--00--000--|
C#||--4--44--444-2--22--222--0--00--0000--00--000--|
G#||--2--22--222-------------x--xx--xxxx--xx--xxx--|
D#||-------------------------3--33--3333--33--333--|


D#||-----------------------------------------------|
A#||--3--33--333-0--00--000--3--33--3333--33--333--|
F#||--4--44--444-0--00--000--0--00--0000--00--000--|
C#||--4--44--444-0--00--000--0--00--0000--00--000--|
G#||--2--22--222-x--xx--xxx--x--xx--xxxx--xx--xxx--|
D#||-------------0--00--000--3--33--3333--33--333--|


D#||---------------------------------------------|
A#||--3--33--333-5--55--555--3--33--33333333333--|
F#||--4--44--444-4--44--444--0--00--00000000000--|
C#||--4--44--444-2--22--222--0--00--00000000000--|
G#||--2--22--222-------------x--xx--xxxxxxxxxxx--|
D#||-------------------------3--33--33333333333--|



Chorus / Outro
Guitar 1:
D#||--2-----0-----2----5-----2-----0----2-----0-----2----5-----2-----0----|
A#||----3-----3-----3----3-----3-----3----3-----3-----3----3-----3-----3--|
F#||------4-----4----------4-----4----------2-----2----------2-----2------|
C#||----------------------------------------------------------------------|
G#||----------------------------------------------------------------------|
D#||----------------------------------------------------------------------|


D#||--3-----2-----0----2-----0--------------------------------------------|
A#||----0-----0-----0----0-----0---3---5-----3h5-----3---2-----2-----2----|
F#||-------------------------------------2-------2-----2---2-----2-----2--|
C#||------4-----4----------4-----4---------0-------0---------0-----0------|
G#||----------------------------------------------------------------------|
D#||----------------------------------------------------------------------|


D#||--2-----0-----2----5-----2-----0----2-----0-----2----5-----2-----5----|
A#||----3-----3-----3----3-----3-----3----3-----3-----3----3-----3-----3--|
F#||------4-----4----------4-----4----------2-----2----------2-----2------|
C#||----------------------------------------------------------------------|
G#||----------------------------------------------------------------------|
D#||----------------------------------------------------------------------|


D#||--3-----2-----0----2-----0-----------------------------|
A#||----0-----0-----0----0-----0---3---5-----5-----3---2~--|
F#||-------------------------------------2-----2-----2-2~--|
C#||------4-----4----------4-----4---------0-----0---------|
G#||-------------------------------------------------------|
D#||-------------------------------------------------------|


Guitar 2:
D#||---------------------------------------|--------------------------------------|
A#||--33333333----------77777777-----------|--33333333----------2222222222222222--|
F#||--44444444-44444444-77777777-66666666--|--44444444-55555555-2222222222222222--|
C#||--44444444-55555555-77777777-77777777--|--44444444-55555555-2222222222222222--|
G#||--22222222-55555555-55555555-77777777--|--22222222-55555555-0000000000000000--|
D#||-----------33333333----------55555555--|-----------33333333-------------------|


D#||---------------------------------------|--------------------------------|
A#||--33333333----------77777777-----------|--33333333-00000000-222222222~--|
F#||--44444444-44444444-77777777-66666666--|--44444444-00000000-222222222~--|
C#||--44444444-55555555-77777777-77777777--|--44444444-00000000-222222222~--|
G#||--22222222-55555555-55555555-77777777--|--22222222-xxxxxxxx-000000000~--|
D#||-----------33333333----------55555555--|-----------33333333-------------|


Guitar 1/2:
D#||---2~---|
A#||---3~---|
F#||---4~---|
C#||---4~---|
G#||---2~---|
D#||--------|




Tablature Legend
----------------
 h   hammer-on
 p   pull-off
 b   bend
 pb  pre-bend
 r   release bend
 ~   hold / vibrato
 .   palm mute
 /   slide up
 \   slide down
 *   pinch harmonic
 '   natural harmonic
 x   mute note
 T   tap
comments
We did not receive enough feedback on this tab! Please rate:
1 2 3 4 5
I want to post or [tab]
guest
You may want to rate the tab now too:
select rating
Please do not post tabs as comments. Select "correction" instead!