Oops, an error
Loading. Please wait.

Burning Hearts Tab

ver2
ver2

Solo

Whole song

More versions @911Tabs.com
1,355 views 3 this week
no commentswrite comment
1 2 3 4 5
excellent!
x 1
Autoscroll
+/-
esc
set tempo
stop
Contributor
Difficulty
Tuning
intermediate
C# G# C# F# A# D#
WARNING: You are trying to view
                                    content from Ultimate-Guitar.com
                                    in an unauthorized application,
                                    which is prohibited.

                                    Please use an official Ultimate
                                    Guitar Tabs application for iPhone,
                                    iPad or Android to access legitimate
                                    chords, guitar, bass, and drum tabs
                                    from Ultimate-Guitar.com database.

                                    Type "ultimate guitar tabs" in Apple
                                    App Store's or Android Market's
                                    search to find the application.
Tabbed by: Joshua Garcia (joshuag523@aol.com)

Tabs for the song: Burning Hearts by Silverstein
Please rate and let me know if you have any corrections. Thank you.


**NOTE - This was taken from my full album tab, which can be found here: 
http://tabs.ultimate-guitar.com/s/silverstein/rescue_album_tab.htm **


Tuning: Drop C# (C# G# C# F# A# D#)



Intro
Guitar 1:
D#||--------------------------------------------------------------|
A#||--------------------------------------------------------------|
F#||--------6~----------------------------6~----------------------|
C#||--4-4-4-6~----------------------4-4-4-6~----------------------|
G#||--2-2-2-4~----------------------2-2-2-4~----------------------|
C#||--------------------------------------------------------------|
      . . .                         . . .

D#||--------------------------------------------------------------|
A#||--------------------------------------------------------------|
F#||--------2~----------------------------2~----------------------|
C#||--4-4-4-2~----------------------4-4-4-2~----------------------| x2
G#||--2-2-2-0~----------------------2-2-2-0~----------------------|
C#||--------------------------------------------------------------|
      . . .                         . . .

D#||---------|
A#||---------|
F#||---------|
C#||--4-4-4--|
G#||--2-2-2--|
C#||---------|
      . . .

Guitar 2:
D#||-----------0-----0-----0-----0-----------0-----0-----0-----0--|
A#||-------------0-----0-----0-----------------0-----0-----0------|
F#||---------------6-----6-----6-----------------6-----6-----6----|
C#||--------------------------------------------------------------| x4
G#||--------------------------------------------------------------|
C#||--------------------------------------------------------------|


Guitar 3:
D#||--------------------------------------------------------------|
A#||--------------------------------------------------------------|
F#||---13~-----8~-----9~-----11~-----16~-----13~-----16~-----9~---|
C#||---x-------x------x------x-------x-------x-------x-------x----|
G#||---11~-----6~-----7~-----9-~-----14~-----11~-----14~-----7~---|
C#||--------------------------------------------------------------|



Verse
Guitar 1/2:
D#||--------------------------------------------------|
A#||--------------------------------------------------|
F#||--6-6---6--6--------4-----------------------------|
C#||--6-6---6--6---4-4--4--4---77--777--777--777--7---|
G#||--4-4---4--4---4-4--2--4---77--777--777--777--7---|
C#||---------------4-4-----4---77--777--777--777--7---|


D#||--------------------------------------------------------|
A#||--------------------------------------------------------|
F#||--6-6---6--6--------4-----------------------------------|
C#||--6-6---6--6---4-4--4--4---77--7---------77--7----------| x2
G#||--4-4---4--4---4-4--2--4---77--7---------77--7----------|
C#||---------------4-4-----4---77--7-777777--77--7-777777---|

                                     ......        ......


Guitar 1:
D#||----------------------------------------------|
A#||--------7-------------------------------------|
F#||-----------9--9--8-9--8--5--------------------|
C#||----9-----------------------9~----6-7--6------|
G#||--7---------------------------------------9~--|
C#||----------------------------------------------|


D#||-----------------------------------------------------|
A#||--------7--------------------------------------------|
F#||-----------9--9--8-9--8--5---------------13--11--9---|
C#||----9-----------------------9~-----------x---x---x---|
G#||--7------------------------------1111111111--9---7---|
C#||-----------------------------------------------------|
                                     . . . .



Chorus
Guitar 1:
D#||---------------------------------------------------------------------------------------------|
A#||---------------------------------------------------------------------------------------------|
F#||--13-13-13-11-11-13-13-16-16-16-13-13-13-11-11-13-13-13-11-11-13-13-16-16-16-13-13-13-11-11--|
C#||--x--x--x--x--x--x--x--x--x--x--x--x--x--x--x--x--x--x--x--x--x--x--x--x--x--x--x--x--x--x---|
G#||--11-11-11-9--9--11-11-14-14-14-11-11-11-9--9--11-11-11-9--9--11-11-14-14-14-11-11-11-9--9---|
C#||---------------------------------------------------------------------------------------------|


D#||-----------------------------------------------------------------------------------|
A#||-----------------------------------------------------------------------------------|
F#||-14-14-14-13-13-13-11-11-13-13-13-11-11-11-9-9-11-11-11-9-9-9-8-8-9-9-9-9-9-9-9-9--|
C#||-x--x--x--x--x--x--x--x--x--x--x--x--x--x--x-x-x--x--x--x-x-x-x-x-x-x-x-x-x-x-x-x--|
G#||-12-12-12-11-11-11-9--9--11-11-11-9--9--9--7-7-9--9--9--7-7-7-6-6-7-7-7-7-7-7-7-7--|
C#||-----------------------------------------------------------------------------------|


D#||---------------------------------------------------------------------------------------------|
A#||---------------------------------------------------------------------------------------------|
F#||--13-13-13-11-11-13-13-16-16-16-13-13-13-11-11-13-13-13-11-11-13-13-16-16-16-13-13-13-11-11--|
C#||--x--x--x--x--x--x--x--x--x--x--x--x--x--x--x--x--x--x--x--x--x--x--x--x--x--x--x--x--x--x---|
G#||--11-11-11-9--9--11-11-14-14-14-11-11-11-9--9--11-11-11-9--9--11-11-14-14-14-11-11-11-9--9---|
C#||---------------------------------------------------------------------------------------------|


D#||----------------------------------------------------------------------|
A#||----------------------------------------------------------------------|
F#||-14-14-14-13-13-13-11-11-13-13-13-11-11-11-9-9-11-11-11-9-9-9-9-9-8~--|
C#||-x--x--x--x--x--x--x--x--x--x--x--x--x--x--x-x-x--x--x--x-x-x-x-x-x---|
G#||-12-12-12-11-11-11-9--9--11-11-11-9--9--9--7-7-9--9--9--7-7-7-7-7-6~--|
C#||----------------------------------------------------------------------|


Guitar 2:
D#||---------------------------------------|--------------------------------------|
A#||---------------------------------------|--------------------------------------|
F#||--66666666-------------------44444444--|--66666666----------------------------|
C#||--66666666-77777777-22222222-44444444--|--66666666-77777777-2222222222222222--|
G#||--44444444-77777777-22222222-22222222--|--44444444-77777777-2222222222222222--|
C#||-----------77777777-22222222-----------|-----------77777777-2222222222222222--|


D#||---------------------------------------|--------------------------------|
A#||---------------------------------------|--------------------------------|
F#||--66666666-------------------44444444--|--66666666----------------------|
C#||--66666666-77777777-22222222-44444444--|--66666666-44444444-77777777-7~-|
G#||--44444444-77777777-22222222-22222222--|--44444444-44444444-77777777-7~-|
C#||-----------77777777-22222222-----------|-----------44444444-77777777-7~-|



Verse
Guitar 1/2:
D#||--------------------------------------------------|
A#||--------------------------------------------------|
F#||--6-6---6--6--------4-----------------------------|
C#||--6-6---6--6---4-4--4--4---77--777--777--777--7---|
G#||--4-4---4--4---4-4--2--4---77--777--777--777--7---|
C#||---------------4-4-----4---77--777--777--777--7---|


D#||--------------------------------------------------------|
A#||--------------------------------------------------------|
F#||--6-6---6--6--------4-----------------------------------|
C#||--6-6---6--6---4-4--4--4---77--7---------77--7----------| x2
G#||--4-4---4--4---4-4--2--4---77--7---------77--7----------|
C#||---------------4-4-----4---77--7-777777--77--7-777777---|

                                     ......        ......


Guitar 1:
D#||----------------------------------------------|
A#||--------7-------------------------------------|
F#||-----------9--9--8-9--8--5--------------------|
C#||----9-----------------------9~----6-7--6------|
G#||--7---------------------------------------9~--|
C#||----------------------------------------------|


D#||-----------------------------------------------------|
A#||--------7--------------------------------------------|
F#||-----------9--9--8-9--8--5---------------13--11--9---|
C#||----9-----------------------9~-----------x---x---x---|
G#||--7------------------------------1111111111--9---7---|
C#||-----------------------------------------------------|
                                     . . . .



Chorus
Guitar 1:
D#||---------------------------------------------------------------------------------------------|
A#||---------------------------------------------------------------------------------------------|
F#||--13-13-13-11-11-13-13-16-16-16-13-13-13-11-11-13-13-13-11-11-13-13-16-16-16-13-13-13-11-11--|
C#||--x--x--x--x--x--x--x--x--x--x--x--x--x--x--x--x--x--x--x--x--x--x--x--x--x--x--x--x--x--x---|
G#||--11-11-11-9--9--11-11-14-14-14-11-11-11-9--9--11-11-11-9--9--11-11-14-14-14-11-11-11-9--9---|
C#||---------------------------------------------------------------------------------------------|


D#||-----------------------------------------------------------------------------------|
A#||-----------------------------------------------------------------------------------|
F#||-14-14-14-13-13-13-11-11-13-13-13-11-11-11-9-9-11-11-11-9-9-9-8-8-9-9-9-9-9-9-9-9--|
C#||-x--x--x--x--x--x--x--x--x--x--x--x--x--x--x-x-x--x--x--x-x-x-x-x-x-x-x-x-x-x-x-x--|
G#||-12-12-12-11-11-11-9--9--11-11-11-9--9--9--7-7-9--9--9--7-7-7-6-6-7-7-7-7-7-7-7-7--|
C#||-----------------------------------------------------------------------------------|


D#||---------------------------------------------------------------------------------------------|
A#||---------------------------------------------------------------------------------------------|
F#||--13-13-13-11-11-13-13-16-16-16-13-13-13-11-11-13-13-13-11-11-13-13-16-16-16-13-13-13-11-11--|
C#||--x--x--x--x--x--x--x--x--x--x--x--x--x--x--x--x--x--x--x--x--x--x--x--x--x--x--x--x--x--x---|
G#||--11-11-11-9--9--11-11-14-14-14-11-11-11-9--9--11-11-11-9--9--11-11-14-14-14-11-11-11-9--9---|
C#||---------------------------------------------------------------------------------------------|


D#||----------------------------------------------------------------------|
A#||----------------------------------------------------------------------|
F#||-14-14-14-13-13-13-11-11-13-13-13-11-11-11-9-9-11-11-11-9-9-9-9-9-8~--|
C#||-x--x--x--x--x--x--x--x--x--x--x--x--x--x--x-x-x--x--x--x-x-x-x-x-x---|
G#||-12-12-12-11-11-11-9--9--11-11-11-9--9--9--7-7-9--9--9--7-7-7-7-7-6~--|
C#||----------------------------------------------------------------------|


Guitar 2:
D#||---------------------------------------|--------------------------------------|
A#||---------------------------------------|--------------------------------------|
F#||--66666666-------------------44444444--|--66666666----------------------------|
C#||--66666666-77777777-22222222-44444444--|--66666666-77777777-2222222222222222--|
G#||--44444444-77777777-22222222-22222222--|--44444444-77777777-2222222222222222--|
C#||-----------77777777-22222222-----------|-----------77777777-2222222222222222--|


D#||---------------------------------------|--------------------------------|
A#||---------------------------------------|--------------------------------|
F#||--66666666-------------------44444444--|--66666666----------------------|
C#||--66666666-77777777-22222222-44444444--|--66666666-44444444-77777777-7~-|
G#||--44444444-77777777-22222222-22222222--|--44444444-44444444-77777777-7~-|
C#||-----------77777777-22222222-----------|-----------44444444-77777777-7~-|



Interlude
Guitar 1/2:
D#||---------------------------|
A#||--5~-----------------------|
F#||--6~-----------------------|
C#||--x------2~-----4~-----7~--|
G#||--4~-----2~-----4~-----7~--|
C#||---------2~-----4~-----7~--|


D#||-------0------------0------------0---------------0~--|
A#||----------0~-----------0~-----------0~--------0------|
F#||-----------------------------------------------------|
C#||--6~-------------------------------------------------|
G#||--4~-----------2~-----------4~-----------7~----------|
C#||---------------2~-----------4~-----------7~----------|


D#||--------------------------------------------------------------------------|
A#||--------------------------------------------------------------------------|
F#||--6666666666666666--------------------------------------------------------|
C#||--6666666666666666-2222222222222222-4444444444444444-777777777777--4-4-4--|
G#||--4444444444444444-2222222222222222-4444444444444444-777777777777--2-2-2--|
C#||-------------------2222222222222222-4444444444444444-777777777777---------|
      ................ ................ ...............  ........      . . .


Verse
Guitar 1/2:
D#||--------------------------------------------------|
A#||--------------------------------------------------|
F#||--6-6---6--6--------4-----------------------------|
C#||--6-6---6--6---4-4--4--4---77--777--777--777--7---|
G#||--4-4---4--4---4-4--2--4---77--777--777--777--7---|
C#||---------------4-4-----4---77--777--777--777--7---|


D#||-------------------------------------------|
A#||-------------------------------------------|
F#||--6-6---6--6--------4----------------------|
C#||--6-6---6--6---4-4--4--4---7~--------12\---|
G#||--4-4---4--4---4-4--2--4---7~--------12\---|
C#||---------------4-4-----4---7~--------12\---|



Guitar 1:
D#||-------------------------------------------|
A#||--------7----------------------------------|
F#||-----------9--9--8-9--8--5~----5---8---9~--|
C#||----9--------------------------------------|
G#||--7----------------------------------------|
C#||-------------------------------------------|



Solo
Guitar 1:
D#||--9-----9------9------9----------9h12p9----9h12p9----9h12p9----9h12p9--|
A#||--12b14-12b14--12h14--12h14---12--------12--------12--------12---------|
F#||-----------------------------------------------------------------------|
C#||-----------------------------------------------------------------------|
G#||-----------------------------------------------------------------------|
C#||-----------------------------------------------------------------------|


D#||-----9h12p9----9h12p9----9h12p9----9h12p9-----12b15---12---9---------|
A#||--12--------12--------12--------12--------12------------------12b15--|
F#||---------------------------------------------------------------------|
C#||---------------------------------------------------------------------|
G#||---------------------------------------------------------------------|
C#||---------------------------------------------------------------------|


D#||-------------9--------------9--------------9--------------|
A#||---------------12-9-----------12-9-----------12-9---------|
F#||--11-11b13-----------11b13----------11b13----------11b13--|
C#||----------------------------------------------------------|
G#||----------------------------------------------------------|
C#||----------------------------------------------------------|


D#||--9-------------------------------------------------|
A#||----12-9--------------------------------------------|
F#||----------11b13--11---9-11--9---8-9--8--------------|
C#||-----------------------------------------9/11~--\---|
G#||----------------------------------------------------|
C#||----------------------------------------------------|


Guitar 2:
D#||--------------------------------------------------|
A#||--------------------------------------------------|
F#||--6-6---6--6--------4-----------------------------|
C#||--6-6---6--6---4-4--4--4---77--777--777--777--7---|
G#||--4-4---4--4---4-4--2--4---77--777--777--777--7---|
C#||---------------4-4-----4---77--777--777--777--7---|


D#||--------------------------------------------------------|
A#||--------------------------------------------------------|
F#||--6-6---6--6--------4-----------------------------------|
C#||--6-6---6--6---4-4--4--4---77--7---------77--7----------|
G#||--4-4---4--4---4-4--2--4---77--7---------77--7----------|
C#||---------------4-4-----4---77--7-777777--77--7-777777---|

                                     ......        ......


Chorus / Outro
Guitar 1:
D#||---------------------------------------------------------------------------------------------|
A#||---------------------------------------------------------------------------------------------|
F#||--13-13-13-11-11-13-13-16-16-16-13-13-13-11-11-13-13-13-11-11-13-13-16-16-16-13-13-13-11-11--|
C#||--x--x--x--x--x--x--x--x--x--x--x--x--x--x--x--x--x--x--x--x--x--x--x--x--x--x--x--x--x--x---|
G#||--11-11-11-9--9--11-11-14-14-14-11-11-11-9--9--11-11-11-9--9--11-11-14-14-14-11-11-11-9--9---|
C#||---------------------------------------------------------------------------------------------|


D#||-----------------------------------------------------------------------------------|
A#||-----------------------------------------------------------------------------------|
F#||-14-14-14-13-13-13-11-11-13-13-13-11-11-11-9-9-11-11-11-9-9-9-8-8-9-9-9-9-9-9-9-9--|
C#||-x--x--x--x--x--x--x--x--x--x--x--x--x--x--x-x-x--x--x--x-x-x-x-x-x-x-x-x-x-x-x-x--|
G#||-12-12-12-11-11-11-9--9--11-11-11-9--9--9--7-7-9--9--9--7-7-7-6-6-7-7-7-7-7-7-7-7--|
C#||-----------------------------------------------------------------------------------|


D#||---------------------------------------------------------------------------------------------|
A#||---------------------------------------------------------------------------------------------|
F#||--13-13-13-11-11-13-13-16-16-16-13-13-13-11-11-13-13-13-11-11-13-13-16-16-16-13-13-13-11-11--|
C#||--x--x--x--x--x--x--x--x--x--x--x--x--x--x--x--x--x--x--x--x--x--x--x--x--x--x--x--x--x--x---|
G#||--11-11-11-9--9--11-11-14-14-14-11-11-11-9--9--11-11-11-9--9--11-11-14-14-14-11-11-11-9--9---|
C#||---------------------------------------------------------------------------------------------|


D#||----------------------------------------------------------------------|
A#||----------------------------------------------------------------------|
F#||-14-14-14-13-13-13-11-11-13-13-13-11-11-11-9-9-11-11-11-9-9-9-9-9-8~--|
C#||-x--x--x--x--x--x--x--x--x--x--x--x--x--x--x-x-x--x--x--x-x-x-x-x-x---|
G#||-12-12-12-11-11-11-9--9--11-11-11-9--9--9--7-7-9--9--9--7-7-7-7-7-6~--|
C#||----------------------------------------------------------------------|


Guitar 2:
D#||---------------------------------------|--------------------------------------|
A#||---------------------------------------|--------------------------------------|
F#||--66666666-------------------44444444--|--66666666----------------------------|
C#||--66666666-77777777-22222222-44444444--|--66666666-77777777-2222222222222222--|
G#||--44444444-77777777-22222222-22222222--|--44444444-77777777-2222222222222222--|
C#||-----------77777777-22222222-----------|-----------77777777-2222222222222222--|


D#||---------------------------------------|--------------------------------|
A#||---------------------------------------|--------------------------------|
F#||--66666666-------------------44444444--|--66666666----------------------|
C#||--66666666-77777777-22222222-44444444--|--66666666-44444444-77777777-7~-|
G#||--44444444-77777777-22222222-22222222--|--44444444-44444444-77777777-7~-|
C#||-----------77777777-22222222-----------|-----------44444444-77777777-7~-|


Guitar 1/2:
D#||------------|
A#||------------|
F#||---4~---\---|
C#||---4~---\---|
G#||---2~---\---|
C#||------------|




Tablature Legend
----------------
 h   hammer-on
 p   pull-off
 b   bend
 pb  pre-bend
 r   release bend
 ~   hold / vibrato
 .   palm mute
 /   slide up
 \   slide down
 *   pinch harmonic
 '   natural harmonic
 x   mute note
 T   tap
comments
We did not receive enough feedback on this tab! Please rate:
print report bad tab
1 2 3 4 5
I want to post or [tab]
guest
You may want to rate the tab now too:
select rating
Please do not post tabs as comments. Select "correction" instead!