Oops, an error
Loading. Please wait.

California Tab

1,403 views 6 this week
no commentswrite comment
1 2 3 4 5
excellent!
x 2
Autoscroll
+/-
esc
set tempo
stop
Contributor
Difficulty
Tuning
intermediate
C# G# C# F# A# D#
WARNING: You are trying to view
                                    content from Ultimate-Guitar.com
                                    in an unauthorized application,
                                    which is prohibited.

                                    Please use an official Ultimate
                                    Guitar Tabs application for iPhone,
                                    iPad or Android to access legitimate
                                    chords, guitar, bass, and drum tabs
                                    from Ultimate-Guitar.com database.

                                    Type "ultimate guitar tabs" in Apple
                                    App Store's or Android Market's
                                    search to find the application.
Tabbed by: Joshua Garcia (joshuag523@aol.com)

Tabs for the song: California by Silverstein
Please rate and let me know if you have any corrections. Thank you.


**For my tab of the whole album, go here:
http://tabs.ultimate-guitar.com/s/silverstein
/this_is_how_the_wind_shifts_album_tab.htm **


Tuning: Guitar 1: Half-Step Down (D# G# C# F# A# D#)
        Guitar 2: Drop C# (C# G# C# F# A# D#)


Intro
Guitar 1:
D#||-------------------------------------------------------------|
A#||--10--------------10-----------------------------------------|
F#||--x---12--11------x---12--11------12--11--------12-11--------|
C#||--x-----------12--x-----------12--x------12-----x-----12-----|
G#||--10--------------10--------------x---------10--x--------10--|
D#||----------------------------------12------------12-----------|


D#||-----------------------------------------------------------------------|
A#||--------------------------------------------------12------10-----------|
F#||--12--11----------12--11----------12--11----------x---------------12~--|
C#||--x-------12------x-------12------x-------10--12--x---12------10-------|
G#||--x-----------10--x-----------10--x---------------x--------------------|
D#||--10--------------10--------------8---------------8--------------------|



Pre-Verse
Guitar 1:
D#||--------------------------------------------------|
A#||--------------------------------------------------|
F#||-------------------------5--55--555--4--44--4444--|
C#||--22--2--222--2--2-------5--55--555--5--55--5555--| x2
G#||--22--2--222--2--2-------3--33--333--2--22--2222--|
D#||--00--0--000--0--0--000---------------------------|
                        ...


Guitar 2:
D#||--------------------------------------------------------------------|
A#||--------------------------------------------------------------------|
F#||--1616--16--161414--14--14---------12--1212--121212-11-1111-7--777--|
C#||--x-x---x---x-x-x---x---x---x-x-x--x---x-x---x-x-x--x--x-x--x--xxx--|
G#||--1414--14--141212--12--12--x-x-x--10--1010--101010-9--9-9--5--555--|
c#||----------------------------x-x-x-----------------------------------|


D#||-----------------------------------------------------------------------|
A#||-----------------------------------------------------------------------|
F#||--1616--16--161414--14--14--121212--19--1919--191919-12--1212--121212--|
C#||--x-x---x---x-x-x---x---x---x-x-x---x---x-x---x-x-x--x---x-x---x-x-x---|
G#||--1414--14--141212--12--12--101010--17--1717--171717-10--1010--101010--|
c#||-----------------------------------------------------------------------|



Guitar 1:
D#||----------------------|---------------|
A#||----------------------|---------------|
F#||----------------------|--55555555--7--|
C#||--77--7--777--7--77~--|--55555555--7--|
G#||--55--5--555--5--55~--|--33333333--5--|
D#||--55--5--555--5--55~--|---------------|


Guitar 2:
D#||------------------------------------|----------------------------|
A#||------------------------------------|----------------------------|
F#||--1111--11--111212--12--12--14--14--|--99999999--1212121212-11~--|
C#||--x-x---x---x-x-x---x---x---x---x---|--xxxxxxxx--x-x-x-x-x--x----|
G#||--9-9---9---9-1010--10--10--12--12--|--77777777--1010101010-9-~--|
C#||------------------------------------|----------------------------|



Verse
Guitar 1:
D#||-------------------------------|------------------------0~------|
A#||-------------------------------|--------------------------3~----|
F#||----------------------------5--|----------------------------4~--|
C#||--2----0~----2----0~------5----|--2----0~----2----0~------------|
G#||--2--4~--4~--2--4~--4~--3------|--2--4~--4~--2--4~--4~----------|
D#||--0----------0-----------------|--0----------0------------------|
                            . .


Guitar 2:
D#||-------------------------------|------------------------0~------|
A#||-------------------------------|--------------------------3~----|
F#||----------------------------5--|----------------------------4~--|
C#||--2----------2------------5----|--2----------2------------------|
G#||--2----------2----------3------|--2----------2------------------|
C#||--2----------2-----------------|--2----------2------------------|
                            . .


Guitar 1/2:
||------------------------------------------------|
||------------------------------------------------|
||--5--55--555-4--44--444-7--77--777-5--555--555--|
||--5--55--555-5--55--555-7--77--777-7--777--777--|
||--3--33--333-2--22--222-5--55--555-5--555--555--|
||------------------------------------------------|


Guitar 1:
D#||-------------------------------|------------------------0~------|
A#||-------------------------------|--------------------------3~----|
F#||----------------------------5--|----------------------------4~--|
C#||--2----0~----2----0~------5----|--2----0~----2----0~------------|
G#||--2--4~--4~--2--4~--4~--3------|--2--4~--4~--2--4~--4~----------|
D#||--0----------0-----------------|--0----------0------------------|
                            . .


Guitar 2:
D#||-------------------------------|------------------------0~------|
A#||-------------------------------|--------------------------3~----|
F#||----------------------------5--|----------------------------4~--|
C#||--2----------2------------5----|--2----------2------------------|
G#||--2----------2----------3------|--2----------2------------------|
C#||--2----------2-----------------|--2----------2------------------|
                            . .


Guitar 1/2:
||------------------------------------------------|
||------------------------------------------------|
||--5--55--555-4--44--444-7--77--777-5--555--555--|
||--5--55--555-5--55--555-7--77--777-7--777--777--|
||--3--33--333-2--22--222-5--55--555-5--555--555--|
||------------------------------------------------|


Guitar 1:
D#||--------------------------------------------|
A#||--------------------------------------------|
F#||--------------------------------------------|
C#||--2--22--2222--22--2225--55--5555--55--555--|
G#||--2--22--2222--22--2225--55--5555--55--555--|
D#||--0--00--0000--00--0003--33--3333--33--333--|


Guitar 2:
D#||-----------------------------------------------------------------------|
A#||--------------------------------------12--12--121212-12--1212--121212--|
F#||--12--1212--121212-11---1111--111111--12--12--121212-12--1212--121212--|
C#||--x---x-x---x-x-x--x----x-x---x-x-x------------------------------------|
G#||--10--1010--101010-10---1010--101010-----------------------------------|
C#||-----------------------------------------------------------------------|



Chorus
Guitar 1:
D#||--------------------------------------------------------------------------------------------|
A#||--------------------------------------------------------------------------------------------|
F#||------------------------5--55--5~--55~--5555------------------------5--55--555--7--77--777--|
C#||--2--22--2~--22~--2222--5--55--5~--55~--5555--7--77--7~--77~--7777--5--55--555--7--77--777--|
G#||--2--22--2~--22~--2222--3--33--3~--33~--3333--5--55--5~--55~--5555--3--33--333--5--55--555--|
D#||--0--00--0~--00~--0000------------------------5--55--5~--55~--5555--------------------------|


D#||--------------------------------------------------------------------------------|
A#||--------------------------------------------------------------------------------|
F#||------------------------5--55--5~--55~--5555------------------------55555555-7--|
C#||--2--22--2~--22~--2222--5--55--5~--55~--5555--7--77--7~--77~--7777--55555555-7--|
G#||--2--22--2~--22~--2222--3--33--3~--33~--3333--5--55--5~--55~--5555--33333333-5--|
D#||--0--00--0~--00~--0000------------------------5--55--5~--55~--5555--------------|


Guitar 2:
D#||--------------------------------------------101010---------|
A#||--12-1212-101010-101010-888--12-1212-101010-101010-121212--|
F#||--12-1212-121212-121212-999--12-1212-121212--------121212--|
C#||-----------------------------------------------------------|
G#||-----------------------------------------------------------|
C#||-----------------------------------------------------------|


D#||-----------------------------------------|
A#||--7-77-777-888-101010-5-55-555-8-88-777--|
F#||--7-77-777-777-7-7-7--5-55-555-7-77-777--|
C#||-----------------------------------------|
G#||-----------------------------------------|
C#||-----------------------------------------|


D#||--------------------------------------------101010---------|
A#||--12-1212-101010-101010-888--12-1212-101010-101010-121212--|
F#||--12-1212-121212-121212-999--12-1212-121212--------121212--|
C#||-----------------------------------------------------------|
G#||-----------------------------------------------------------|
C#||-----------------------------------------------------------|


D#||----------------------------------|
A#||--7-77-777-888-101010-55555555-7--|
F#||--7-77-777-777-7-7-7--55555555-7--|
C#||----------------------------------|
G#||----------------------------------|
C#||----------------------------------|



Pre-Verse
Guitar 1:
D#||--------------------------------------------------|
A#||--------------------------------------------------|
F#||-------------------------5--55--555--4--44--4444--|
C#||--22--2--222--2--2-------5--55--555--5--55--5555--|
G#||--22--2--222--2--2-------3--33--333--2--22--2222--|
D#||--00--0--000--0--0--000---------------------------|
                        ...

D#||--------------------------------------|
A#||--------------------------------------|
F#||--------------------------55555555-7--|
C#||--22--2--222--2--2--2222--55555555-7--|
G#||--22--2--222--2--2--2222--33333333-5--|
D#||--00--0--000--0--0--0000--------------|


Guitar 2:
D#||--------------------------------------------------------------------|
A#||--------------------------------------------------------------------|
F#||--1616--16--161414--14--14---------12--1212--121212-11-1111-7--777--|
C#||--x-x---x---x-x-x---x---x---x-x-x--x---x-x---x-x-x--x--x-x--x--xxx--|
G#||--1414--14--141212--12--12--x-x-x--10--1010--101010-9--9-9--5--555--|
C#||----------------------------x-x-x-----------------------------------|


D#||-------------------------------------------------------------|
A#||-------------------------------------------------------------|
F#||--1616--16--161414--14--14--19191919--999999-1212121212/14~--|
C#||--x-x---x---x-x-x---x---x---x-x-x-x---xxxxxx-x-x-x-x-x-/x----|
G#||--1414--14--141212--12--12--17171717--777777-1010101010/12~--|
C#||-------------------------------------------------------------|



Verse
Guitar 1:
D#||-------------------------------|------------------------0~------|
A#||-------------------------------|--------------------------3~----|
F#||----------------------------5--|----------------------------4~--|
C#||--2----0~----2----0~------5----|--2----0~----2----0~------------|
G#||--2--4~--4~--2--4~--4~--3------|--2--4~--4~--2--4~--4~----------|
D#||--0----------0-----------------|--0----------0------------------|
                            . .


Guitar 2:
D#||-------------------------------|------------------------0~------|
A#||-------------------------------|--------------------------3~----|
F#||----------------------------5--|----------------------------4~--|
C#||--2----------2------------5----|--2----------2------------------|
G#||--2----------2----------3------|--2----------2------------------|
C#||--2----------2-----------------|--2----------2------------------|
                            . .


Guitar 1/2:
||------------------------------------------------|
||------------------------------------------------|
||--5--55--555-4--44--444-7--77--777-5--555--555--|
||--5--55--555-5--55--555-7--77--777-7--777--777--|
||--3--33--333-2--22--222-5--55--555-5--555--555--|
||------------------------------------------------|


Guitar 1:
D#||-------------------------------|------------------------0~------|
A#||-------------------------------|--------------------------3~----|
F#||----------------------------5--|----------------------------4~--|
C#||--2----0~----2----0~------5----|--2----0~----2----0~------------|
G#||--2--4~--4~--2--4~--4~--3------|--2--4~--4~--2--4~--4~----------|
D#||--0----------0-----------------|--0----------0------------------|
                            . .


Guitar 2:
D#||-------------------------------|------------------------0~------|
A#||-------------------------------|--------------------------3~----|
F#||----------------------------5--|----------------------------4~--|
C#||--2----------2------------5----|--2----------2------------------|
G#||--2----------2----------3------|--2----------2------------------|
C#||--2----------2-----------------|--2----------2------------------|
                            . .


Guitar 1/2:
||------------------------------------------------|
||------------------------------------------------|
||--5--55--555-4--44--444-7--77--777-5--555--555--|
||--5--55--555-5--55--555-7--77--777-7--777--777--|
||--3--33--333-2--22--222-5--55--555-5--555--555--|
||------------------------------------------------|


Guitar 1:
D#||----------------------------------------------------------|
A#||----------------------------------------------------------|
F#||----------------------------------------------------------|
C#||--2--22--2222--22--2222--55--5555--55--555----------------|
G#||--2--22--2222--22--2222--55--5555--55--555--///pick////---|
D#||--0--00--0000--00--0000--33--3333--33--333--////slide///--|


Guitar 2:
D#||------------------------------------------------------------------------------|
A#||--------------------------------------12--12--121212-12--121212---------------|
F#||--12--1212--121212-11---1111--111111--12--12--121212-12--121212---------------|
C#||--x---x-x---x-x-x--x----x-x---x-x-x-------------------------------------------|
G#||--10--1010--101010-10---1010--101010----------------------------///pick////---|
C#||----------------------------------------------------------------////slide///--|



Chorus
Guitar 1:
D#||--------------------------------------------------------------------------------------------|
A#||--------------------------------------------------------------------------------------------|
F#||------------------------5--55--5~--55~--5555------------------------5--55--555--7--77--777--|
C#||--2--22--2~--22~--2222--5--55--5~--55~--5555--7--77--7~--77~--7777--5--55--555--7--77--777--|
G#||--2--22--2~--22~--2222--3--33--3~--33~--3333--5--55--5~--55~--5555--3--33--333--5--55--555--|
D#||--0--00--0~--00~--0000------------------------5--55--5~--55~--5555--------------------------|


D#||---------------------------------------------------------------------------------------|
A#||---------------------------------------------------------------------------------------|
F#||------------------------5--55--5~--55~--5555------------------------55555555-----------|
C#||--2--22--2~--22~--2222--5--55--5~--55~--5555--7--77--7~--77~--7777--55555555-77777777--|
G#||--2--22--2~--22~--2222--3--33--3~--33~--3333--5--55--5~--55~--5555--33333333-55555555--|
D#||--0--00--0~--00~--0000------------------------5--55--5~--55~--5555-----------55555555--|


Guitar 2:
D#||--------------------------------------------101010---------|
A#||--12-1212-101010-101010-888--12-1212-101010-101010-121212--|
F#||--12-1212-121212-121212-999--12-1212-121212--------121212--|
C#||-----------------------------------------------------------|
G#||-----------------------------------------------------------|
C#||-----------------------------------------------------------|


D#||-----------------------------------------|
A#||--7-77-777-888-101010-5-55-555-8-88-777--|
F#||--7-77-777-777-7-7-7--5-55-555-7-77-777--|
C#||-----------------------------------------|
G#||-----------------------------------------|
C#||-----------------------------------------|


D#||--------------------------------------------101010---------|
A#||--12-1212-101010-101010-888--12-1212-101010-101010-121212--|
F#||--12-1212-121212-121212-999--12-1212-121212--------121212--|
C#||-----------------------------------------------------------|
G#||-----------------------------------------------------------|
C#||-----------------------------------------------------------|


D#||-----------------------------------------|
A#||--7-77-777-888-101010-55555555-77777777--|
F#||--7-77-777-777-7-7-7--55555555-77777777--|
C#||-----------------------------------------|
G#||-----------------------------------------|
C#||-----------------------------------------|



Interlude
Guitar 1:
D#||------------|------------|------------|--------------------|
A#||----8-7-----|----8-7-----|----8-7-----|----8-7---10-9-7----|
F#||--------7~--|--------7~--|--------7~--|--------7--------7--|
C#||------------|--0---------|------------|--0-----------------| x3
G#||------------|------------|------------|--------------------|
D#||--0---------|------------|--8---------|--------------------|


D#||-------------|
A#||-------------|
F#||-------------|
C#||--2----------|
G#||----------0--|
D#||------2------|


Guitar 2:
D#||-----------|-----------|-----------|-----------|
A#||-----------|-----------|-----------|-----------|
F#||-----------|-----------|--5-5-5-5--|--7-7-7-7--|
C#||--2-2-2-2--|--0-0-0-0--|--5-5-5-5--|--5-5-5-5--| x2
G#||--2-2-2-2--|--0-0-0-0--|--3-3-3-3--|--5-5-5-5--|
C#||--2-2-2-2--|--0-0-0-0--|-----------|-----------|


D#||-------------|
A#||-------------|
F#||-------------|
C#||--2----------|
G#||----------0--|
C#||------4------|



Bridge
Guitar 1:
D#||----------------------------------------7-------------------10-8-7------------|
A#||--8-7---------------10-8-7----------------10-8-7~------------------10-7b8r7~--|
F#||------9-7~-----------------7~-------------------------------------------------|
C#||------------------------------------------------------------------------------|
G#||------------------------------------------------------------------------------|
D#||------------------------------------------------------------------------------|


Guitar 2 (dub):
D#||--------------------------------------------------7------------------------------|
A#||-----------8-7----------------10-8-7----------------10-8-7~-----------10b12r10~--|
F#||---------------9-7~------------------7~------------------------------------------|
C#||---------------------------------------------------------------------------------|
G#||---------------------------------------------------------------------------------|
D#||---------------------------------------------------------------------------------|



Guitar 1:
D#||----------------------------------------7-------------------15-14-12--------------|
A#||--8-7---------------10-8-7----------------10-8-7~--------------------15~-/17-15~--|
F#||------9-7~-----------------7~-----------------------------------------------------|
C#||----------------------------------------------------------------------------------|
G#||----------------------------------------------------------------------------------|
D#||----------------------------------------------------------------------------------|


Guitar 2 (dub):
D#||--------------------------------------------------7------------------14---15-14~--|
A#||-----------8-7----------------10-8-7----------------10-8-7~-----------------------|
F#||---------------9-7~------------------7~-------------------------------------------|
C#||----------------------------------------------------------------------------------|
G#||----------------------------------------------------------------------------------|
D#||----------------------------------------------------------------------------------|


Guitar 3:
D#||-------------------------------------------------------------------|
A#||-------------------------------------------------------------------|
F#||--------------------------------------------------5-5-5-5-7-7-7-7--|
C#||--2-2-2-2-2-2-2-2-5-5-5-5-5-5-5-5-7-7-7-7-7-7-7-7-5-5-5-5-7-7-7-7--| x2
G#||--2-2-2-2-2-2-2-2-5-5-5-5-5-5-5-5-7-7-7-7-7-7-7-7-3-3-3-3-5-5-5-5--|
C#||--2-2-2-2-2-2-2-2-5-5-5-5-5-5-5-5-7-7-7-7-7-7-7-7------------------|



Chorus / Outro
Guitar 1:
D#||-------------------------------------------------------------------|
A#||-------------------------------------------------------------------|
F#||-------------------------------------------------------------------|
C#||--2-2-2-2-2-2-2-2-2-2-2-2-2-2-2-2-5-5-5-5-5-5-5-5-5-5-5-5-5-5-5-5--|
G#||--2-2-2-2-2-2-2-2-2-2-2-2-2-2-2-2-3-3-3-3-3-3-3-3-3-3-3-3-3-3-3-3--|
D#||--0-0-0-0-0-0-0-0-0-0-0-0-0-0-0-0-3-3-3-3-3-3-3-3-3-3-3-3-3-3-3-3--|


D#||-------------------------------------------------------------------|
A#||-------------------------------------------------------------------|
F#||-------------------------------------------------------------------|
C#||--7-7-7-7-7-7-7-7-7-7-7-7-7-7-7-7-5-5-5-5-5-5-5-5-7-7-7-7-7-7-7-7--|
G#||--5-5-5-5-5-5-5-5-5-5-5-5-5-5-5-5-3-3-3-3-3-3-3-3-5-5-5-5-5-5-5-5--|
D#||--5-5-5-5-5-5-5-5-5-5-5-5-5-5-5-5-3-3-3-3-3-3-3-3-5-5-5-5-5-5-5-5--|


Guitar 2:
D#||-----------------------------------------------|
A#||--12-12-12-12-12-12-12-12-10-10-10-10-8-8-8-8--|
F#||--12-12-12-12-12-12-12-12-11-11-11-11-9-9-9-9--|
C#||-----------------------------------------------|
G#||-----------------------------------------------|
C#||-----------------------------------------------|


D#||--------------------------10-10-10-10--------------|
A#||--12-12-12-12-12-12-12-12-10-10-10-10-12-12-12-12--|
F#||--12-12-12-12-12-12-12-12-------------12-12-12-12--|
C#||---------------------------------------------------|
G#||---------------------------------------------------|
C#||---------------------------------------------------|


D#||-----------------------------------------------------------------------|
A#||--7-7-7-7-7-7-7-7-8-8-8-8-10-10-10-10-5-5-5-5-5-5-5-5-7-7-7-7-7-7-7-7--|
F#||--7-7-7-7-7-7-7-7-7-7-7-7-7--7--7--7--5-5-5-5-5-5-5-5-7-7-7-7-7-7-7-7--|
C#||-----------------------------------------------------------------------|
G#||-----------------------------------------------------------------------|
C#||-----------------------------------------------------------------------|



Guitar 1:
D#||-------------------------------------------------------------------|
A#||-------------------------------------------------------------------|
F#||-------------------------------------------------------------------|
C#||--2-2-2-2-2-2-2-2-2-2-2-2-2-2-2-2-5-5-5-5-5-5-5-5-5-5-5-5-5-5-5-5--|
G#||--2-2-2-2-2-2-2-2-2-2-2-2-2-2-2-2-3-3-3-3-3-3-3-3-3-3-3-3-3-3-3-3--|
D#||--0-0-0-0-0-0-0-0-0-0-0-0-0-0-0-0-3-3-3-3-3-3-3-3-3-3-3-3-3-3-3-3--|


D#||-------------------------------------------------------------------|
A#||-------------------------------------------------------------------|
F#||-------------------------------------------------------------------|
C#||--7-7-7-7-7-7-7-7-7-7-7-7-7-7-7-7-5-5-5-5-5-5-5-5-7-7-7-7-7-7-7-7--|
G#||--5-5-5-5-5-5-5-5-5-5-5-5-5-5-5-5-3-3-3-3-3-3-3-3-5-5-5-5-5-5-5-5--|
D#||--5-5-5-5-5-5-5-5-5-5-5-5-5-5-5-5-3-3-3-3-3-3-3-3-5-5-5-5-5-5-5-5--|


Guitar 2:
D#||-----------------------------------------------|
A#||--12-12-12-12-12-12-12-12-10-10-10-10-8-8-8-8--|
F#||--12-12-12-12-12-12-12-12-11-11-11-11-9-9-9-9--|
C#||-----------------------------------------------|
G#||-----------------------------------------------|
C#||-----------------------------------------------|


D#||--------------------------10-10-10-10--------------|
A#||--12-12-12-12-12-12-12-12-10-10-10-10-12-12-12-12--|
F#||--12-12-12-12-12-12-12-12-------------12-12-12-12--|
C#||---------------------------------------------------|
G#||---------------------------------------------------|
C#||---------------------------------------------------|


D#||--14-14-14-14-14-14-14-14-15-15-15-15-17-17-17-17--|
A#||--15-15-15-15-15-15-15-15-15-15-15-15-15-15-15-15--|
F#||---------------------------------------------------|
C#||---------------------------------------------------|
G#||---------------------------------------------------|
C#||---------------------------------------------------|


D#||--12-12-12-12-12-12-12-12-15-15-15-15-14-14-14-14--|
A#||--13-13-13-13-13-13-13-13-15-15-15-15-15-15-15-15--|
F#||---------------------------------------------------|
C#||---------------------------------------------------|
G#||---------------------------------------------------|
C#||---------------------------------------------------|


Guitar 1:
D#||------|
A#||------|
F#||--4~--|
C#||--2~--|
G#||--2~--|
D#||------|




Tablature Legend
----------------
 h   hammer-on
 p   pull-off
 b   bend
 pb  pre-bend
 r   release bend
 ~   hold / vibrato
 .   palm mute
 /   slide up
 \   slide down
 *   pinch harmonic
 '   natural harmonic
 x   mute note
 T   tap
comments
We did not receive enough feedback on this tab! Please rate:
print report bad tab
1 2 3 4 5
I want to post or [tab]
guest
You may want to rate the tab now too:
select rating
Please do not post tabs as comments. Select "correction" instead!