Oops, an error
Loading. Please wait.

Dancing On My Grave Tab

ver2
ver2

Whole song

Interactive

More versions @911Tabs.com
519 views 1 this week
no commentswrite comment
1 2 3 4 5
excellent!
x 1
Autoscroll
+/-
esc
set tempo
stop
Contributor
Difficulty
Tuning
intermediate
D# G# C# F# A# D#
Hey! There's an official Ultimate Guitar app which is ideal
for learning songs when you're away from computer. Get the app
WARNING: You are trying to view
                                    content from Ultimate-Guitar.com
                                    in an unauthorized application,
                                    which is prohibited.

                                    Please use an official Ultimate
                                    Guitar Tabs application for iPhone,
                                    iPad or Android to access legitimate
                                    chords, guitar, bass, and drum tabs
                                    from Ultimate-Guitar.com database.

                                    Type "ultimate guitar tabs" in Apple
                                    App Store's or Android Market's
                                    search to find the application.
Tabbed by: Joshua Garcia (joshuag523@aol.com)

Tabs for the song: Dancing On My Grave by Silverstein
Please rate and let me know if you have any corrections. Thank you.


**NOTE - This was taken from my full album tab, which can be found here: 
http://tabs.ultimate-guitar.com/s/silverstein/rescue_album_tab.htm **


Tuning: Half-Step Down (D# G# C# F# A# D#)



Intro
Guitar 1:                        (2)
D#||-------------------------------------|
A#||-------------------------------------|
F#||-------------------------------------|
C#||--2222--22--22-----2222--22--22--22--|
G#||--2222--22--22-----2222--22--22--22--|
D#||--0000--00--00-----0000--00--00--00--|
      ....  ..  ..     ....  ..  ..  ..


Guitar 1/2:                      (1) (2)
D#||-------------------------------------|
A#||-------------------------------------|
F#||-------------------------------------|
C#||--2222--22--22-----2222--22--22--22--|
G#||--2222--22--22-----2222--22--22--22--|
D#||--0000--00--00-----0000--00--00--00--|
      ....  ..  ..     ....  ..  ..  ..


                                 (2) (1)
D#||-------------------------------------|
A#||-------------------------------------|
F#||-------------------------------------|
C#||--2222--22--22-----2222--22--22--22--|
G#||--2222--22--22-----2222--22--22--22--|
D#||--0000--00--00-----0000--00--00--00--|
      ....  ..  ..     ....  ..  ..  ..



Verse
Guitar 1/2:
D#||---------------------------------------------------------------------|
A#||------8--8---8---8----8--8---8---8----7--7---7---7-------------------|
F#||------9--9---9---9----9--9---9---9----7--7---7---7-------------------|
C#||------9--9---9---9----9--9---9---9----7--7---7---7----7--7---7---7---| x2
G#||---7777--7---7---7-7777--7---7---7-5555--5---5---5----7--7---7---7---|
D#||---------------------------------------------------5555--5---5---5---|
       ...             ...             ...             ...


Guitar 1:
D#||---------10~----------10---7-----------------------------------|
A#||------8------------8---------------8--10~--------8--7---8-7----|
F#||--/9------------9--------------/9------------/9-------------7--|
C#||---------------------------------------------------------------|
G#||---------------------------------------------------------------|
D#||---------------------------------------------------------------|


D#||---------10~----------10---7--------------------------------------|
A#||------8------------8---------------8--10~--------8-----7-7---8-8--|
F#||--/9------------9--------------/9------------/9------7------------|
C#||------------------------------------------------------------------|
G#||------------------------------------------------------------------|
D#||------------------------------------------------------------------|


Guitar 2:
D#||---------------------------------------------------------------------|
A#||------8--8---8---8----8--8---8---8----7--7---7---7-------------------|
F#||------9--9---9---9----9--9---9---9----7--7---7---7-------------------|
C#||------9--9---9---9----9--9---9---9----7--7---7---7----7--7---7---7---|
G#||---7777--7---7---7-7777--7---7---7-5555--5---5---5----7--7---7---7---|
D#||---------------------------------------------------5555--5---5---5---|
       ...             ...             ...             ...


D#||-----------------------------------------------------------------------|
A#||------8--8---8---8----8--8---8---8----7--7---7---7---------------------|
F#||------9--9---9---9----9--9---9---9----7--7---7---7---------------------|
C#||------9--9---9---9----9--9---9---9----7--7---7---7----7--7--7-7---7-7--|
G#||---7777--7---7---7-7777--7---7---7-5555--5---5---5----7--7--7-7---7-7--|
D#||---------------------------------------------------5555--5--5-5---5-5--|
       ...             ...             ...             ...



Chorus
Guitar 2:
D#||--------------------------------------------------------------|
A#||--------------------------------------------------------------|
F#||--------5~----------------------9--9--7~----------------------|
C#||--2--2--5~----------------------9--9--7~----------------------|
G#||--2--2--3~----------------------7--7--5~----------------------|
D#||--0--0--------------------------------------------------------|


Guitar 1:
D#||--------------------------------------------------------------|
A#||-----------------------------0--------------------------------|
F#||---------------0---0---0-2-2-----------------0---0-----0-0-2--|
C#||-----------------4---4-------------------------4---4-4--------|
G#||--------------------------------------------------------------|
D#||--------------------------------------------------------------|


Guitar 2:
D#||----------------------------------------|
A#||----------------------------------------|
F#||--7--7--9~------------------------------|
C#||--7--7--9~--------pick------------------|
G#||--5--5--7~-----------slide--------------|
D#||----------------------------------------|


Guitar 1:
D#||----------------------------------------|
A#||-------------------0-----0--------------|
F#||---------------7-----7--------pick------|
C#||-----------------9-----9---------slide--|
G#||----------------------------------------|
D#||----------------------------------------|


Guitar 1/2:
D#||-----------------------------------------|
A#||-----------------------------------------|
F#||--5~-5~--5~--5~--------------------------|
C#||--5~-5~--5~--5~------5~------7-7---7-7---|
G#||--3~-3~--3~--3~------5~------7-7---7-7---|
D#||-------------------333~---33-5-5---5-5---|
                       ..     ..



Verse
Guitar 1/2:
D#||---------------------------------------------------------------------|
A#||------8--8---8---8----8--8---8---8----7--7---7---7-------------------|
F#||------9--9---9---9----9--9---9---9----7--7---7---7-------------------|
C#||------9--9---9---9----9--9---9---9----7--7---7---7----7--7---7---7---| x2
G#||---7777--7---7---7-7777--7---7---7-5555--5---5---5----7--7---7---7---|
D#||---------------------------------------------------5555--5---5---5---|
       ...             ...             ...             ...


Guitar 1:
D#||---------10~----------10---7-----------------------------------|
A#||------8------------8---------------8--10~--------8--7---8-7----|
F#||--/9------------9--------------/9------------/9-------------7--|
C#||---------------------------------------------------------------|
G#||---------------------------------------------------------------|
D#||---------------------------------------------------------------|


D#||---------10~----------10---7--------------------------------------|
A#||------8------------8---------------8--10~--------8-----7-7---8-8--|
F#||--/9------------9--------------/9------------/9------7------------|
C#||------------------------------------------------------------------|
G#||------------------------------------------------------------------|
D#||------------------------------------------------------------------|


Guitar 2:
D#||---------------------------------------------------------------------|
A#||------8--8---8---8----8--8---8---8----7--7---7---7-------------------|
F#||------9--9---9---9----9--9---9---9----7--7---7---7-------------------|
C#||------9--9---9---9----9--9---9---9----7--7---7---7----7--7---7---7---|
G#||---7777--7---7---7-7777--7---7---7-5555--5---5---5----7--7---7---7---|
D#||---------------------------------------------------5555--5---5---5---|
       ...             ...             ...             ...


D#||-----------------------------------------------------------------------|
A#||------8--8---8---8----8--8---8---8----7--7---7---7---------------------|
F#||------9--9---9---9----9--9---9---9----7--7---7---7---------------------|
C#||------9--9---9---9----9--9---9---9----7--7---7---7----7--7--7-7---7-7--|
G#||---7777--7---7---7-7777--7---7---7-5555--5---5---5----7--7--7-7---7-7--|
D#||---------------------------------------------------5555--5--5-5---5-5--|
       ...             ...             ...             ...



Chorus
Guitar 2:
D#||--------------------------------------------------------------|
A#||--------------------------------------------------------------|
F#||--------5~----------------------9--9--7~----------------------|
C#||--2--2--5~----------------------9--9--7~----------------------|
G#||--2--2--3~----------------------7--7--5~----------------------|
D#||--0--0--------------------------------------------------------|


Guitar 1:
D#||--------------------------------------------------------------|
A#||-----------------------------0--------------------------------|
F#||---------------0---0---0-2-2-----------------0---0-----0-0-2--|
C#||-----------------4---4-------------------------4---4-4--------|
G#||--------------------------------------------------------------|
D#||--------------------------------------------------------------|


Guitar 2:
D#||----------------------------------------|
A#||----------------------------------------|
F#||--7--7--9~------------------------------|
C#||--7--7--9~--------pick------------------|
G#||--5--5--7~-----------slide--------------|
D#||----------------------------------------|


Guitar 1:
D#||----------------------------------------|
A#||-------------------0-----0--------------|
F#||---------------7-----7--------pick------|
C#||-----------------9-----9---------slide--|
G#||----------------------------------------|
D#||----------------------------------------|


Guitar 1/2:
D#||-----------------------------------------|
A#||-----------------------------------------|
F#||--5~-5~--5~--5~--------------------------|
C#||--5~-5~--5~--5~------5~------7-7---7-7---|
G#||--3~-3~--3~--3~------5~------7-7---7-7---|
D#||-------------------333~---33-5-5---5-5---|
                       ..     ..



Breakdown
Guitar 1/2:
D#||------------------------------------------------|
A#||------------------------------------------------|
F#||--------------------------5---5~-----7---7~-----|
C#||--2--2--2-----------------5---5~--5--7---7~--7--|
G#||--2--2--2--3p2h5p2h3p2-0--3---3~--5--5---5~--7--|
D#||--0--0--0-------------------------3----------5--|


D#||------------------------------------------------|
A#||------------------------------------------------|
F#||--------------------------5-------5--7----7~----|
C#||--2--2--2-----------------5---5~--5--7----7~----| x2
G#||--2--2--2-----------------3---5~--3--5----5~----|
D#||--0--0--0---------------------3~----------------|



Bridge
Guitar 1:
D#||--------------------------------------------------------------------|
A#||--0-0-8-0-7-0-5-0-7-0-8-0-7-0-5-5--0-0-8-0-7-0-5-0-7-0-8-0-7-0-5-5--|
F#||--------------------------------------------------------------------|
C#||--------------------------------------------------------------------|
G#||--------------------------------------------------------------------|
D#||--------------------------------------------------------------------|


D#||--------------------------------------------------------------------|
A#||------8---7---5---7---8---7---5-5------8---7---5---7---8---7---5-5--|
F#||--5-5---5---5---5---5---5---5------5-5---5---5---5---5---5---5------|
C#||--------------------------------------------------------------------|
G#||--------------------------------------------------------------------|
D#||--------------------------------------------------------------------|


D#||--------------------------------------------------------------------|
A#||------8---7---5---7---8---7---5-5------8---7---5---7---8---7---5-5--|
F#||--7-7---7---7---7---7---7---7------7-7---7---7---7---7---7---7------|
C#||--------------------------------------------------------------------|
G#||--------------------------------------------------------------------|
D#||--------------------------------------------------------------------|


D#||-----------------------------------------------|
A#||--77777777-55555555-88888888-1010101010101010--|
F#||-----------------------------------------------|
C#||-----------------------------------------------|
G#||-----------------------------------------------|
D#||-----------------------------------------------|


D#||--------------------------------------------------------------------|
A#||--0-0-8-0-7-0-5-0-7-0-8-0-7-0-5-5--0-0-8-0-7-0-5-0-7-0-8-0-7-0-5-5--|
F#||--------------------------------------------------------------------|
C#||--------------------------------------------------------------------|
G#||--------------------------------------------------------------------|
D#||--------------------------------------------------------------------|


D#||--------------------------------------------------------------------|
A#||------8---7---5---7---8---7---5-5------8---7---5---7---8---7---5-5--|
F#||--5-5---5---5---5---5---5---5------5-5---5---5---5---5---5---5------|
C#||--------------------------------------------------------------------|
G#||--------------------------------------------------------------------|
D#||--------------------------------------------------------------------|


D#||--------------------------------------------------------------------|
A#||------8---7---5---7---8---7---5-5------8---7---5---7---8---7---5-5--|
F#||--7-7---7---7---7---7---7---7------7-7---7---7---7---7---7---7------|
C#||--------------------------------------------------------------------|
G#||--------------------------------------------------------------------|
D#||--------------------------------------------------------------------|



D#||------------------------|
A#||--77777777-55555555-8~--|
F#||------------------------|
C#||------------------------|
G#||------------------------|
D#||------------------------|


Guitar 2:
D#||--0-0-7-0-5-0-3-0-5-0-7-0-5-0-3-3--0-0-7-0-5-0-3-0-5-0-7-0-5-0-3-3--|
A#||--------------------------------------------------------------------|
F#||--------------------------------------------------------------------|
C#||--------------------------------------------------------------------| x2
G#||--------------------------------------------------------------------|
D#||--------------------------------------------------------------------|


D#||-----------------------------------------------------------------------------|
A#||-7-7-12-7-10-7-8-7-10-7-12-7-10-7-8-8--7-7-12-7-10-7-8-7-10-7-12-7-10-7-8-8--|
F#||-----------------------------------------------------------------------------|
C#||-----------------------------------------------------------------------------|
G#||-----------------------------------------------------------------------------|
D#||-----------------------------------------------------------------------------|


D#||------------------------------|
A#||--77777777-8888-10101010-12~--|
F#||------------------------------|
C#||------------------------------|
G#||------------------------------|
D#||------------------------------|


Guitar 3:
D#||------------------------------------------------------------------------|
A#||------------------------------------------------------------------------|
F#||-------------------5555555555555555------------------77777777-88888888--|
C#||--2222222222222222-5555555555555555-7777777777777777-77777777-88888888--|
G#||--2222222222222222-3333333333333333-7777777777777777-55555555-66666666--|
D#||--0000000000000000------------------5555555555555555--------------------|


D#||------------------------------------------------------------------------|
A#||------------------------------------------------------------------------|
F#||-------------------5555555555555555------------------77777777-8~--------|
C#||--2222222222222222-5555555555555555-7777777777777777-77777777-8~--------|
G#||--2222222222222222-3333333333333333-7777777777777777-55555555-6~--------|
D#||--0000000000000000------------------5555555555555555---------------12\--|



Breakdown
Guitar 1/2:                      (1) (2)
D#||-------------------------------------|
A#||-------------------------------------|
F#||-------------------------------------|
C#||--2222--22--22-----2222--22--22--22--|
G#||--2222--22--22-----2222--22--22--22--|
D#||--0000--00--00-----0000--00--00--00--|
      ....  ..  ..     ....  ..  ..  ..


                                 (2) (1)
D#||-------------------------------------|
A#||-------------------------------------|
F#||-------------------------------------|
C#||--2222--22--22-----2222--22--22--22--|
G#||--2222--22--22-----2222--22--22--22--|
D#||--0000--00--00-----0000--00--00--00--|
      ....  ..  ..     ....  ..  ..  ..


                                 (1) (2)
D#||-------------------------------------|
A#||-------------------------------------|
F#||-------------------------------------|
C#||--2222--22--22-----2222--22--22--22--|
G#||--2222--22--22-----2222--22--22--22--|
D#||--0000--00--00-----0000--00--00--00--|
      ....  ..  ..     ....  ..  ..  ..


                                 (2) (1)
D#||-------------------------------------|
A#||-------------------------------------|
F#||------------------------------5---7--|
C#||--2222--22--22-----2222--22---5---7--|
G#||--2222--22--22-----2222--22---3---5--|
D#||--0000--00--00-----0000--00----------|
      ....  ..  ..     ....  ..



Chorus
Guitar 2:
D#||--------------------------------------------------------------|
A#||--------------------------------------------------------------|
F#||--------5~----------------------9--9--7~----------------------|
C#||--2--2--5~----------------------9--9--7~----------------------|
G#||--2--2--3~----------------------7--7--5~----------------------|
D#||--0--0--------------------------------------------------------|


Guitar 1:
D#||--------------------------------------------------------------|
A#||-----------------------------0--------------------------------|
F#||---------------0---0---0-2-2-----------------0---0-----0-0-2--|
C#||-----------------4---4-------------------------4---4-4--------|
G#||--------------------------------------------------------------|
D#||--------------------------------------------------------------|


Guitar 2:
D#||----------------------------------------|
A#||----------------------------------------|
F#||--7--7--9~------------------------------|
C#||--7--7--9~--------pick------------------|
G#||--5--5--7~-----------slide--------------|
D#||----------------------------------------|


Guitar 1:
D#||----------------------------------------|
A#||-------------------0-----0--------------|
F#||---------------7-----7--------pick------|
C#||-----------------9-----9---------slide--|
G#||----------------------------------------|
D#||----------------------------------------|


Guitar 1/2:
D#||----------------------------------------|
A#||----------------------------------------|
F#||--5~-5~--5~--5~-------------------------|
C#||--5~-5~--5~--5~------5~------77777777---|
G#||--3~-3~--3~--3~------5~------77777777---|
D#||-------------------333~---33-55555555---|
                       ..     ..



Chorus / Outro
Guitar 2:
D#||-----------------------------------------------------------------------|
A#||-----------------------------------------------------------------------|
F#||----------5~-------------------------9--9--9-5~------------------------|
C#||--2--2--2-5~-------------------------9--9--9-5~------------------------|
G#||--2--2--2-3~-------------------------7--7--7-3~------------------------|
D#||--0--0--0--------------------------------------------------------------|
      .  .  .                            .  .  .

Guitar 1:
D#||-----------------------------------------------------------------------|
A#||-----------------------------------------------------------------------|
F#||----------7~/9-9-9-7/9-9-9-7/-9-9-9----------7/9-9-9-7/9-9-9-7/-9-9-9--|
C#||-----------------------------------------------------------------------|
G#||-----------------------------------------------------------------------|
D#||-----------------------------------------------------------------------|


Guitar 2:
D#||---------------------------------------|
A#||---------------------------------------|
F#||--7--7--9~-----------------------------|
C#||--7--7--9~------------------pick-------|
G#||--5--5--7~---------------------slide---|
D#||---------------------------------------|
      .  .

Guitar 1:
D#||---------------------------------------|
A#||--------7~--8-8-8-7-8-8-8-7-8-8-8------|
F#||--------9~--9-9-9-9-9-9-9-9-9-9-9------|
C#||---------------------------------------|
G#||---------------------------------------|
D#||---------------------------------------|


Guitar 1:
D#||--7---7---7---7-7--------------------------|
A#||--8---8---8---8-8----10~-----7~------------|
F#||--9---9---9---9-9----9-~-----9~------7/9~--|
C#||-------------------------------------------|
G#||-------------------------------------------|
D#||-------------------------------------------|


Guitar 2:
D#||-------------------------------------------|
A#||-------------------------------------------|
F#||--5~-5~--5~--5~----------------------------|
C#||--5~-5~--5~--5~------5~------7~------2~----|
G#||--3~-3~--3~--3~------5~------7~------2~----|
D#||-------------------333~------5~------0~----|
                       ..




Tablature Legend
----------------
 h   hammer-on
 p   pull-off
 b   bend
 pb  pre-bend
 r   release bend
 ~   hold / vibrato
 .   palm mute
 /   slide up
 \   slide down
 *   pinch harmonic
 '   natural harmonic
 x   mute note
 T   tap
comments
We did not receive enough feedback on this tab! Please rate:
print report bad tab
1 2 3 4 5
I want to post or [tab]
guest
You may want to rate the tab now too:
select rating
Please do not post tabs as comments. Select "correction" instead!