Oops, an error
Loading. Please wait.

Discovering The Waterfront Bass Tab

ver1
ver1

Album

Whole song

More versions @911Tabs.com
5,949 views 3 this week
12 commentsread comments
1 2 3 4 5
excellent!
x 14
Autoscroll
+/-
esc
set tempo
stop
Contributor
WARNING: You are trying to view
                                    content from Ultimate-Guitar.com
                                    in an unauthorized application,
                                    which is prohibited.

                                    Please use an official Ultimate
                                    Guitar Tabs application for iPhone,
                                    iPad or Android to access legitimate
                                    chords, guitar, bass, and drum tabs
                                    from Ultimate-Guitar.com database.

                                    Type "ultimate guitar tabs" in Apple
                                    App Store's or Android Market's
                                    search to find the application.
Artist:Silverstein
CD:Discovering the Waterfront
Tuning:Dropped D and Standard
Tabbed By:fret13
fret13@columbus.rr.com

This is the bass tab for the entire
Discovering the Waterfront album. I 
have no credit to give and can assure
you that this is about 100 percent.
thank you to all my friends, and not to
Hmake this a speach instead of a tab
here we go.

1.YOUR SWORD VERSUS MY DAGGER

2.SMILE IN YOUR SLEEP

3.IDES OF MARCH

4.FIST WRAPPED IN BLOOD

5.DISCOVERING THE WATERFRONT

6.DEFEND YOU

7.MY HEROINE

8.ALWAYS AND NEVER

9.ALREADY DEAD

10.THREE HOURS BACK

11.CALL IT CARMA

12.RODEO CLOWN

i havent really seen a lot of 
Silverstein bass tabs but if 
i have and i said it was good
then i assure i have forgotten
that ive said that and if it looks
exactly like your tab then that means 
your tab deserves 5*
===========================================================================

1.YOUR SWORD VERSUS MY DAGGER

Tuning-Dropped D

Intro
|----------------------------------|
|----------------------------------|
|----------------------------------|
|-00-xxx-000-xxx-00-xxx-000-xxx-00-|
                                        x2
|-------------------------|
|-------------------------|
|-1-1-1-1-111-------------|
|-------------3-3-2-2-222-|

verse
|--------------------------------------|
|--------------------------------------|
|------111-----------------3-3-3-3-333-|
|-000-------(/5)3-3-3-3-333------------|

|--------------------------------------|
|--------------------------------------|
|------111-----------------------------|
|-000-------(/5)3-3-3-3-3332-2-2-2-222-|

pre-chorus
|-----------------------------------|x2
|-----------------------------------|
|-1111111133333333------------------|
|-----------------00-xxx-000-xxx-00-|

chorus
|----------------------------------|
|----------------------------------|
|-1111111133333333-----------------|
|-----------------0000000033333333-|

|------------------|
|------------------|
|-1111111133333333-|
|------------------|

verse
|--------------------------------------|
|--------------------------------------|
|------111-----------------3-3-3-3-333-|
|-000-------(/5)3-3-3-3-333------------|

|--------------------------------------|
|--------------------------------------|
|------111-----------------------------|
|-000-------(/5)3-3-3-3-3332-2-2-2-222-|

pre-chorus
|-----------------------------------|x2
|-----------------------------------|
|-1111111133333333------------------|
|-----------------00-xxx-000-xxx-00-|

chorus
|----------------------------------|
|----------------------------------|
|-1111111133333333-----------------|
|-----------------0000000033333333-|

|------------------|
|------------------|
|-1111111133333333-|
|------------------|

bridge
|------------------------------------|x7
|--------14-15-14---------14-15-14---|
|-0p15p17-(0)-------0p15p17-(0)---15-|
|------------------------------------|

|-----------------------|
|--------14-15-14-------|
|-0p15p17-(0)----111333-|
|-----------------------|

|--------------------------------------------------|x3
|--------------------------------------------------|
|-------------------------111111111111-------------|
|-000000000000333333333333------------333333222222-|

pre-chorus
|-----------------------------------|x2
|-----------------------------------|
|-1111111133333333------------------|
|-----------------00-xxx-000-xxx-00-|

chorus
|----------------------------------|
|----------------------------------|
|-1111111133333333-----------------|
|-----------------0000000033333333-|

|------------------|
|------------------|
|-1111111133333333-|
|------------------|

outro
|------------|
|------------|
|------------|
|-00-xxx-000-|
============================================================================

2.SMILE IN YOUR SLEEP

Tuning:Standard

intro/verse
|----------------------------------------|x2
|-222-2-2--222-2-2-----------000-0-0--2\-|
|-------------------333-3-3--------------|
|----------------------------------------|

|----------------------------------------|
|-222-2-2--222-2-2-----------000-0-0-----|
|-------------------333-3-3-----------7\-|
|----------------------------------------|


chorus
|--------------------------------------------------------------------|x2
|--------------------------------------------------------------------|
|---------------------------------33333333333333333333333333333333---|
|-00000000000000000000000000000000--------------------------------3\-|

verse
|----------------------------------------|
|-222-2-2--222-2-2-----------000-0-0--2\-|
|-------------------333-3-3--------------|
|----------------------------------------|

|----------------------------------------|
|-222-2-2--222-2-2-----------000-0-0-----|
|-------------------333-3-3-----------7\-|
|----------------------------------------|

chorus
|--------------------------------------------------------------------|x2
|--------------------------------------------------------------------|
|---------------------------------33333333333333333333333333333333---|
|-00000000000000000000000000000000--------------------------------3\-|

bridge-3rd and 4th time is a bit slower
|-------------------------------------------|x4
|-------------------------------0-0---------|
|---------------------3-3-3333------2222-2\-|
|-0-0-0000--0-0-0000------------------------|

breakdown
|------------------------|
|--------------------0~--|
|--------------3~--------|
|-0~----(0~)-------------|

|--------------------------------------|
|--------------------0000000000000000--|
|--------------3~----------------------|
|-0~----(0~)---------------------------|

chorus
|--------------------------------------------------------------------|x2
|--------------------------------------------------------------------|
|---------------------------------33333333333333333333333333333333---|
|-00000000000000000000000000000000--------------------------------3\-|

outro
|-------------------------------------------|
|-------------------------------0-0---------|
|---------------------3-3-3333------222222--|
|-0-0-0000--0-0-0000----------------------0-|
===========================================================================

3.IDES OF MARCH

Tuning:Dropped D

intro-gradually turn volume from 0 to 10
|----|
|----|
|----|
|-0~-|

verse
|-----------------|x2
|-----------------|
|-----------------|
|-9-99-9p09-9-9-9-|

|----------------|x2
|----------------|
|----------------|
|-0-00-000-0-0-0-|
all that x2

pre-chorus
|----------------|
|----------------|
|-2~----------0~-|
|-------0~-------|

|--------------------------|
|--------------------------|
|-2~----------0~--00000000-|
|-------0~-----------------|

chorus
|---------------------------------|
|---------------------------------|
|-22222222-----------------------0|
|---------00000000222222222555545-|

|--------------------------------------|
|--------------------------------------|
|-22222222---------------------00000000|
|---------000000002222222225555--------|

verse
|-----------------|x2
|-----------------|
|-----------------|
|-9-99-9p09-9-9-9-|

|----------------|x2
|----------------|
|----------------|
|-0-00-000-0-0-0-|
all that x2
then
|-----------|
|-----------|
|-0h24h5p40-|
|-----------|

chorus
|---------------------------------|
|---------------------------------|
|-22222222-----------------------0|
|---------00000000222222222555545-|

|--------------------------------------|
|--------------------------------------|
|-22222222---------------------00000000|
|---------000000002222222225555--------|
all this x2

bridge-wait
|-----------------------------------------------------------|
|-----------------------------------------------------------|
|---2-2-2-4-5-4-5-2-2-2-4-5-4-5-------4-5-4-5-0-0-0-5-4-2-0-|
|-9\----------------------------5-5-5-----------------------|

|------------------------------------------------------------|
|------------------------------------------------------------|
|-2-2-2-4-5-4-5-2-2-2-4-5-4-5-------4-5-4-5-0-0-0-4h5p4h5p40-|
|-----------------------------5-5-5--------------------------|

|---------------------------------------------------------|
|---------------------------------------------------------|
|-2-2-2-4-5-4-5-2-2-2-4-5-4-5-------4-5-4-5-0-0-0-5-4-2-0-|
|-----------------------------5-5-5-----------------------|

|------------------------------------------------------------|
|------------------------------------------------------------|
|-2-2-2-4-5-4-5-2-2-2-4-5-4-5-------4-5-4-5-0-0-0-4h5p4h5p40-|
|-----------------------------5-5-5--------------------------|

pre-chorus
|----------------|
|----------------|
|-2~----------0~-|
|-------0~-------|

|--------------------------|
|--------------------------|
|-2~----------0~--00000000-|
|-------0~-----------------|

chorus
|---------------------------------|
|---------------------------------|
|-22222222-----------------------0|
|---------00000000222222222555545-|

|--------------------------------------|
|--------------------------------------|
|-22222222---------------------00000000|
|---------000000002222222225555--------|
all this x2

outro
|-----------------|
|-----------------|
|-2-2-2-4-5-4-0-2-|
|-----------------|
===========================================================================

4.FIST WRAPPED IN BLOOD

Tuning-Dropped D

intro
|-----------------------|
|-----------------------|
|-----------1~----3~--3-|
|-0~--------------------|

pre-verse
|-----------------------------|x2
|-----------------------------|
|--------1-1-1110-0-000-------|
|-0-0-000--------------55-3-2-|

verse
|------------------------------------------------------------------|
|------------------------------------------------------------------|
|-----------------11111111111111100000000000000000-----------------|
|-0000000000000002--------------------------------5-5-5553-3-3/5\2-|

|------------------------------------------------------------------|
|------------------------------------------------------------------|
|-----------------11111111111111100000000000000000------------33---|
|-0000000000000002--------------------------------5-5-5553-3-3-----|

chorus                                                            
|-----------------------------------------------------------------[----]
|-----------------------------------------------------------------[----]
|-----------------0-0-000-0-00-000-5-5-555-3-33-3331-1-111-1-11-11[----]
|-3-3-333-3-33-333------------------------------------------------[-3\-]

[---]
[---]
[-1-]
[---]

pre-verse
|-----------------------------|x2
|-----------------------------|
|--------1-1-1110-0-000-------|
|-0-0-000--------------55-3-2-|

verse
|------------------------------------------------------------------|
|------------------------------------------------------------------|
|-----------------11111111111111100000000000000000-----------------|
|-0000000000000002--------------------------------5-5-5553-3-3/5\2-|

|------------------------------------------------------------------|
|------------------------------------------------------------------|
|-----------------11111111111111100000000000000000------------33---|
|-0000000000000002--------------------------------5-5-5553-3-3-----|

chorus                                                            
|-----------------------------------------------------------------[----]
|-----------------------------------------------------------------[----]
|-----------------0-0-000-0-00-000-5-5-555-3-33-3331-1-111-1-11-11[----]
|-3-3-333-3-33-333------------------------------------------------[-3\-]

[---]
[---]
[-1-]
[---]

breakdown
|----------------------------------|
|----------------------------------|
|-----------1~----3333333333333333-|
|-0~-------------------------------|

bridge x3
|-------------------------------------------------------
|-------------------------------------------------------
|-1-1-1-1h3p0-0-0-0-0---1-1-1-1h3p0---------------------
|--------------------32-------------0000003-3-0000003-3-
third time add this
[---------------------]
[---------------------]
[---------------------]
[-0000003-3-0000003-3-]

outro         x3
|--------------|[---------]
|--------------|[---------]
|--------------|[---------]
|-00-0-00-3333-|[-00-0-00-]
===========================================================================

5.DISCOVERING THE WATERFRONT

Tunig:Standard

intro/verse
[----][----------------]------------|
[----][----------------]------------|
[----][-----2~--0~-----]-2~--0~-----|
[-3~-][-3~----------3~-]---------3~-|

|----------------|x3
|----------------|
|-----2~--0~-----|
|-3~----------3~-|

post-verse
|----------------------------|
|----------------------------|
|----------------------------|
|-0~--0~--0~--0~--3~--3~--3~-|

pre-chorus
|-------------------00000-|x2
|-------00000-22222-------|
|-22222-------------------|
|-------------------------|

chorus
|----------------------|
|------0000022222------|
|-22222----------------|
|----------------33333-|

verse 2
|--------------------------------|x2
|--------------------------------|
|-2~--0~-------0--2~--0~---------|
|---------3~--3-3---------3~--3~-|

post-verse 2
|------------------------------|
|------------------------------|
|------------------------------|
|-0~--0~--0~--0~--2-3~--3~--3~-|

pre-chorus
|-------------------00000-|x2
|-------00000-22222-------|
|-22222-------------------|
|-------------------------|

chorus
|----------------------|
|------0000022222------|
|-22222----------------|
|----------------33333-|

bridge
|---------------------------------------------------------|x4
|-------------------------------------------0-0000-0-0000-|
|---------------0-0000-0-0000-2-2222-2-2222---------------|
|-3-3333-3-3333-------------------------------------------|

breakdown
|--------------------------------|x2
|-------------------------0~--0~-|
|---------0~--0~--2~--2~---------|
|-3~--3~-------------------------|

|-------------------------------------------------|x2
|-------------------------------------00000-00000-|
|-------------00000-00000-22222-22222-------------|
|-33333-33333-------------------------------------|

pre-chorus
|-------------------00000-|x2===\
|-------00000-22222-------|======\
|-22222-------------------|=======\
|-------------------------|======= x2
                           =======/                            
chorusx2                last time/
|----------------------|[----]
|------0000022222------|[----]
|-22222----------------|[----]
|----------------33333-|[-3~-]
==========================================================================

6.DEFEND YOU

Tuning:Standard

verse
|-----0----0----0----0--0----------------------------|============\
|-2222-2222-2222-2222-22-----------------------------|=============\
|------------------------333333333333333333333333222-|==============\
|----------------------------------------------------|===============\
                                                 1st  ==2nd======== x2
|-----0----0----0----0--0------------------------[----][------------]/
|-2222-2222-2222-2222-22-------------------------[--0-][------------]
|------------------------333333333333333300000000[-3--][--------0022]
|------------------------------------------------[3---][00332233----]

chorus
|-----------------------------------------------------------------|
|-----------------2222222200000000--------------------------------|
|-3333333333333333----------------3333333333333333-----0-22222222-|
|-------------------------------------------------33-3------------|

|-------------------------------------------------------------------|
|-----------------2222222200000000----------------------------------|
|-3333333333333333----------------33333333---------000-000-00000000-|
|-----------------------------------------333333333-----------------|

verse 2
|-----0----0----0----0--0----------------------------|
|-2222-2222-2222-2222-22-----------------------------|
|------------------------333333333333333333333333222-|
|----------------------------------------------------|

|-----0----0----0----0--0------------------------------------|
|-2222-2222-2222-2222-22-------------------------------------|
|------------------------333333333333333300000000--------0022|
|------------------------------------------------00332233----|


chorus 2
|-----------------------------------------------------------------|
|-----------------2222222200000000--------------------------------|
|-3333333333333333----------------3333333333333333-----0-22222222-|
|-------------------------------------------------33-3------------|

|-------------------------------------------------------------------|
|-----------------2222222200000000----------------------------------|
|-3333333333333333----------------33333333---------000-000-00000000-|
|-----------------------------------------333333333-----------------|

|------------------|
|------------------|
|-3333333322222222-|
|------------------|

breakdown
|----------------|x4
|----------------|
|---------3~--2~-|
|-0~--3-2--------|

|------|
|------|
|-3x96-|
|------|

bridge
|----------------------------------|x3
|----------------------------------|
|-----------------3333333322222222-|
|-0000000000000000-----------------|

|--------------------------------|
|--------------------------------|
|-----------------33-33-33-33-7\-|
|-0000000000000000---------------|

chorus
|-----------------------------------------------------------------|
|-----------------2222222200000000--------------------------------|\
|-3333333333333333----------------3333333333333333-----0-22222222-|=\
|-------------------------------------------------33-3------------|==\
                                                                   ===x2
|-------------------------------------------------------------------/
|-----------------2222222200000000----------------------------------
|-3333333333333333----------------33333333---------000-000-00000000-
|-----------------------------------------333333333-----------------

outro
|-----0--|
|-2222-2-|
|--------|
|--------|
===========================================================================

7.MY HEROINE (New video soon yay!)

Tuning:Standard

verse-comes in at "but sudation"
|----------------------|
|-------0~----2~----0~-|
|-3~-------------------|
|----------------------|

|------------------------------|
|-------0~----2222222200000000-|
|-3~---------------------------|
|------------------------------|

pre-chorusx2              1st     2nd
|-------------------------[0-2-0-][---------]
|-----------------0-00-00-[-4-4--][---------]
|---------3-33-33---------[------][---------]
|-0-00-00-----------------[------][3-3-2-3-2]

chorusx2                          1st 
|--------------------------------[--------------------------------]
|---------0-0-0-0-2-2-2-2-2-2-2-2[--------0-0-0-0-2-2-2-2---------]
|-3-3-3-3------------------------[3-3-3-3-------------------------]
|--------------------------------[-------------------------3-3-3-3]
2nd
[----------------------------------]
[-----------------0-0-0-0-00000000-]
[-3-3-3-3-3-3-3-3------------------]
[----------------------------------]

pre-chorusx2              1st     2nd
|-------------------------[0-2-0-][---------]
|-----------------0-00-00-[-4-4--][---------]
|---------3-33-33---------[------][---------]
|-0-00-00-----------------[------][3-3-2-3-2]

chorusx2                          1st 
|--------------------------------[--------------------------------]
|---------0-0-0-0-2-2-2-2-2-2-2-2[--------0-0-0-0-2-2-2-2---------]
|-3-3-3-3------------------------[3-3-3-3-------------------------]
|--------------------------------[-------------------------3-3-3-3]
2nd
[----------------------------------]
[-----------------0-0-0-0-00000000-]
[-3-3-3-3-3-3-3-3------------------]
[----------------------------------]

bridgex2                           1st
|----------------------------------[-----------------------------------]
|----------------------------------[-2-222-22-0-000-00-----------------]
|------------------2-222-222-222-22[-------------------3-333-333-33-3p2]
|-3-333-333-333-33-----------------[-----------------------------------]
2nd
[----------------]
[-2~----0~-------]
[-------------3~-]
[----------------]

breakdown
|----------------------|x3
|-------0~----2~----0~-|
|-3~-------------------|
|----------------------|

|------------------------------|
|-------0~----2222222200000000-|
|-3~---------------------------|
|------------------------------|

chorusx2                          1st 
|--------------------------------[--------------------------------]
|---------0-0-0-0-2-2-2-2-2-2-2-2[--------0-0-0-0-2-2-2-2---------]
|-3-3-3-3------------------------[3-3-3-3-------------------------]
|--------------------------------[-------------------------3-3-3-3]
2nd
[----------------------------------]
[-----------------0-0-0-0-00000000-]
[-3-3-3-3-3-3-3-3------------------]
[----------------------------------]

outro
|-------------------------------------|
|-----------------0-00-00-------------|
|---------3-33-33-------------0-------|
|-0-00-00-----------------3-2---2-3-0-|
==================================================================================

8.ALWAYS AND NEVER

Tuning:Dropped D

intro
|-----------------|x2
|-----------------|
|-22-2-0-22-2-0-2-|
|-----------------|
            
|-----------------|x2
|-----------------|
|-00-5-4-00-5-4-0-|
|-----------------|

|-----------------|x2
|-----------------|
|-22-2-0-22-2-0-2-|
|-----------------|
            
|-----------------|x2
|------------4--0-|
|-00-5-4-00-------|
|-----------------|

verse
|---------------------------------|
|-44444444444444444444444444444444|
|---------------------------------|
|---------------------------------|

|-----------------------------------------------------------------|x4
|-000000000000000000000000000000044444444444444444444444444444444-|
|-----------------------------------------------------------------|
|-----------------------------------------------------------------|

pre-chorus
|-----------------0000000000000000-|
|-4444444444444444-----------------|
|----------------------------------|
|----------------------------------|

|--------------|x2
|-4-0-4-0-44-2-|
|--------------|
|--------------|

chorus
|------------------------------------------------------------------|x2
|---------------------------------0000000000000000000000000000-----|
|-2222222222222222--------------------------------------------4444-|
|-----------------0000000000000000---------------------------------|

verse
|-----------------------------------------------------------------|x4
|-000000000000000000000000000000044444444444444444444444444444444-|
|-----------------------------------------------------------------|
|-----------------------------------------------------------------|

pre-chorus
|-----------------0000000000000000-|
|-4444444444444444-----------------|
|----------------------------------|
|----------------------------------|

|--------------|x2
|-4-0-4-0-44-2-|
|--------------|
|--------------|

chorus
|------------------------------------------------------------------|x2
|---------------------------------0000000000000000000000000000-----|
|-2222222222222222--------------------------------------------4444-|
|-----------------0000000000000000---------------------------------|

|--------------|x2
|-4-0-4-0-44-2-|
|--------------|
|--------------|

bridge
|------------------------------------------|x2
|------------------------------------------|
|-----------00-0000-00---------------------|
|-00-0000-00----------55-5555-55-44-4444-44|

|------------------------------------------------------------------|x2
|------------------------------------------------------------------|
|-2222222222222222----------------0000000000000000-----------------|
|-----------------0000000000000000----------------5555555555554444-|


chorus
|------------------------------------------------------------------|x2
|---------------------------------0000000000000000000000000000-----|
|-2222222222222222--------------------------------------------4444-|
|-----------------0000000000000000---------------------------------|

outro
|-----------------------------|
|-----------------------------|
|-----------------------------|
|-0-4-4-0-4-4-4-0-4-4-0-4-4-4-|
===================================================================================

9.ALREADY DEAD

Tuning: Standard or Dropped D

intro
|-----|
|-----|
|-55/-|
|-----|

|--------2-1-------|
|------------2-4---|
|-000-000--------4-|
|------------------|

|--------2-1-------|
|------------2-4-0-|
|-000-000----------|
|------------------|

verse
|----------|x4
|----------|
|-44-00-22-|
|----------|

|--------2-1-------|
|------------2-4---|
|-000-000--------4-|
|------------------|

|--------2-1-------|
|------------2-4-0-|
|-000-000----------|
|------------------|

|----------|x4
|----------|
|-44-00-22-|
|----------|

chorus x4                         3rd
|---------------------------------[---]
|---------------------------------[4\2]
|-4-4-444-0-0-000-2-2-222-2-2-222-[---]
|---------------------------------[---]

verse
|----------|x4
|----------|
|-44-00-22-|
|----------|

|--------2-1-------|
|------------2-4---|
|-000-000--------4-|
|------------------|

|--------2-1-------|
|------------2-4-0-|
|-000-000----------|
|------------------|

|----------|x4
|----------|
|-44-00-22-|
|----------|

chorus x4                         3rd
|---------------------------------[---]
|---------------------------------[4\2]
|-4-4-444-0-0-000-2-2-222-2-2-222-[---]
|---------------------------------[---]

pre-bridge
|----|
|----|
|-4\-|
|----|

bridge
|----------------------------------------------|
|----------------------------------------------|
|-44----4400----4400----440022--440022--440022-|
|----------------------------------------------|

|------------------|x4
|------------------|
|-4444000022222222-|
|------------------|

chorus x4                         3rd
|---------------------------------[---]
|---------------------------------[4\2]
|-4-4-444-0-0-000-2-2-222-2-2-222-[---]
|---------------------------------[---]

outro
|-----------------6666666666666666-|x2
|----------------------------------|
|-4444444444444444-----------------|
|----------------------------------|

|----|
|----|
|-44-|
|----|
===================================================================================

10.THREE HOURS BACK

Tuning:Dropped D

intro
|----|
|----|
|-2~-|
|----|

intro/chorus
|--------------------------|x2
|--------------------------|
|--------------------------|
|-44--22--0000000000000000-|

|----------------------------------|x2
|----------------------------------|
|----------------------------------|
|-44444444222222220000000000000000-|

verse
|-----------------------------------------------------------------|x4
|-4-44-44-4-44-44-4-44-44-4-44-44-0-00-00-0-00-00-0-00-00-0-00-00-|
|-----------------------------------------------------------------|
|-----------------------------------------------------------------|

pre-chorus
|------2--|x4
|-4-44--4-|=========================\
|---------|==========================\
|---------|========================== x2
           ==========================/
|-----------------------------------|
|-000000000000000000000000000000000-|
|-----------------------------------|
|-----------------------------------|

chorus
|--------------------------|x2
|--------------------------|
|--------------------------|
|-44--22--0000000000000000-|

|----------------------------------|x2
|----------------------------------|
|----------------------------------|
|-44444444222222220000000000000000-|

verse 2
|-----------------------|x9 or 10
|-----2-2---------------|
|---0-------0-4h5p4-0-0-|
|-4-------4----------4--|

pre-brigde
|-----------------------|x4
|-----2-2---------------|
|---0-------0-4h5p4-0-0-|
|-4-------4----------4--|

bridge
|-----------------------------------------------------------------|
|-----------------------------------------------------------------|
|-----------------------------------------------------------------|
|-4-44-40-4-44-40-4-44-40-4-44-40-0-00-00-0-00-00-0-00-00-0-00-00-|

pre-chorus
|------2--|x4
|-4-44--4-|=========================\
|---------|==========================\
|---------|========================== x2
           ==========================/
|-----------------------------------|
|-000000000000000000000000000000000-|
|-----------------------------------|
|-----------------------------------|

chorus
|--------------------------|x2
|--------------------------|
|--------------------------|
|-44--22--0000000000000000-|

|----------------------------------|x2
|----------------------------------|
|----------------------------------|
|-44444444222222220000000000000000-|
===================================================================================

11.CALL IT KARMA

Tuning:Dropped D

verse
|----------------------------------|x4
|----------------------------------|
|-----------------0000000000000000-|
|-3333333333333333-----------------|

pre-chorus
|------------------------------------------------------------------|
|------------------------------------------------------------------|
|---------------------------------00000000000000003333333333333333-|
|-00000000000000003333333333333333---------------------------------|

verse 2
|----------------------------------|x4
|-3333333333333333-----------------|
|-----------------0000000000000000-|
|----------------------------------|

pre-chorus
|------------------------------------------------------------------|
|------------------------------------------------------------------|
|---------------------------------00000000000000003333333333333333-|
|-00000000000000003333333333333333---------------------------------|

chorus
|----------------------------------|x3
|----------------------------------|
|-----------------0000000000000000-|
|-3333333333333333-----------------|

|----------------------------------|
|----------------------------------|
|-----------------00000000---------|
|-3333333333333333--------55555555-|

solo
|------------------------------------------------------------------|x2
|-3333333333333333-------------------------------------------------|
|-----------------0000000000000000----------------0000000000000000-|
|---------------------------------3333333333333333-----------------|

pre-chorus
|------------------------------------------------------------------|
|------------------------------------------------------------------|
|---------------------------------00000000000000003333333333333333-|
|-00000000000000003333333333333333---------------------------------|

chorus
|----------------------------------|x3
|----------------------------------|
|-----------------0000000000000000-|
|-3333333333333333-----------------|

|----------------------------------|
|----------------------------------|
|-----------------00000000---------|
|-3333333333333333--------55555555-|

breakdown
|-----------------------------|x2
|-----------------------------|
|-0~--------------------------|
|-------6~--33333333333333333-|

bridge/outro
|--------------------------------------------------------|
|--------------------------------------------------------|
|-0-0-0--------------------------------------------------|
|-------666666666666666633333333333333333333333333333333-|\
                                                           x2
|--------------------------------------------------|      /
|--------------------------------------------------|     /
|-0000000000000000---------------------------------|====/
|-----------------66666666666666663333333333333333-|

|--------------------------------------------------|x2
|--------------------------------------------------|
|-0000000000000000---------------------------------|
|-----------------66666666666666663333333333333333-|

|----------------------------------------------------|
|----------------------------------------------------|
|-0000000000000000---------------------------------0-|
|-----------------66666666666666663333333333333-3-3--|

I know that the bridge/outro kinda
sounds eerie but thats how they play it
============================================================================
12.RODEO CLOWN

Tuning:standard

Intro(use a pick)
|-----------------------|
|-----------------------|
|-7-7~\----7-7-7-7\7\---|
|-5-5~\----5-5-5-5\5\0~-|

Chorus
|---------------------------------|x8
|---------------------------------|
|-4-4-444-2-2-222-0-0-000---------|
|-------------------------0-0-000-|

Verse
|------------------------------------------------------------------|
|------------------------------------------------------------------|
|--0-0-0-0-0-0-0-0-0-0-0-0-0-0-0-0-0-0-0-0-0-0-0-0-0-0-0-0-0-0-0-0-|
|-4-4-4-4-4-4-4-4-2-2-2-2-2-2-2-2-4-4-4-4-4-4-4-4-2-2-2-2-0-0-0-0--|

|--------------------------------|
|--------------------------------|
|--0-0-0-0-0-0-0-0-0-0-0-0-0-0-0-|
|-4-4-4-4-2-2-2-2-0-0-0-0-4-4-4--|

Pre-Chorus
|-------------------------|
|-----------------2--2222-|
|-0-0-000-----------------|
|---------0-0-000---------|

Chorus
|---------------------------------|x8
|---------------------------------|
|-4-4-444-2-2-222-0-0-000---------|
|-------------------------0-0-000-|

Verse 2
|------------------------------------------------------------------|
|------------------------------------------------------------------|
|--0-0-0-0-0-0-0-0-0-0-0-0-0-0-0-0-0-0-0-0-0-0-0-0-0-0-0-0-0-0-0-0-|
|-4-4-4-4-4-4-4-4-2-2-2-2-2-2-2-2-4-4-4-4-4-4-4-4-2-2-2-2-0-0-0-0--|

|-----------------------------------------------------------|
|-----------------------------------------------------------|
|--0-022--0-022--0-022-------------0-0-0-2-2-222-0-0-0-0-00-|
|-4-4----4-4----2-2----2/77777777-4-4-4-4-------------------|

Intro(use a pick)
|-----------------------|
|-----------------------|
|-7-7~\----7-7-7-7\7\---|
|-5-5~\----5-5-5-5\5\0~-|

Outro
|---------------------------------|x3
|---------------------------------|
|-2-2-222-4-4-444---------0-0-000-|
|-----------------2-2-222---------|

|--------------------------------|
|--------------------------------|
|-2-2-222-4-4-444----------------|
|-----------------2p0-2p0-2/4-5~-|

|-------|
|-------|
|-------|
|-5\-5\-|
============================================================================
The only one I'm not 100% on (i dont think) 
is Always and Never. please rate.
============================================================================

| /  slide up
| \  slide down
| h  hammer-on
| p  pull-off
| ~  vibrato
| +  harmonic
| x  Mute note
============================================================================
comments
print report bad tab
12 comments total. Showing first comments.
0 reply
screamokid wrote on October 7 2006, 05:36 pm

good job

0 reply
Somekid182 wrote on December 9 2006, 12:24 am

great job, i saw no mistakes and i don't play bass but i showed my friend. it's great.

0 reply
HH_Emo_666 wrote on December 26 2006, 04:10 pm

good job .. i dont play bass either but i played my guitar clean and put my pickups on rythym and turned my amp up and it sounded perfect

I want to post or [tab]
guest
You may want to rate the tab now too:
select rating
Please do not post tabs as comments. Select "correction" instead!