Oops, an error
Loading. Please wait.

Discovering The Waterfront Tab

ver1
ver1

Intro

Album

Whole song

Interactive

More versions @911Tabs.com
15,134 views 9 this week
13 commentsread comments
1 2 3 4 5
worth learning
x 2
Autoscroll
+/-
esc
set tempo
stop
Contributor
Hey! There's an official Ultimate Guitar app which is ideal
for learning songs when you're away from computer. Get the app
WARNING: You are trying to view
                                    content from Ultimate-Guitar.com
                                    in an unauthorized application,
                                    which is prohibited.

                                    Please use an official Ultimate
                                    Guitar Tabs application for iPhone,
                                    iPad or Android to access legitimate
                                    chords, guitar, bass, and drum tabs
                                    from Ultimate-Guitar.com database.

                                    Type "ultimate guitar tabs" in Apple
                                    App Store's or Android Market's
                                    search to find the application.
now before you go crazy at me i didnt make any of these tabs i am just putting this 
in one place so people can get an easy access to it if they want to learn the whole album 
of searching individually.

Track list:
1. Your Sword Versus My Dagger (submitted by marshallm4)
2. Smile In Your Sleep (submitted by loversandliars)
3. The Ides Of March
4. Fist Wrapped In Blood (submitted by screamokid)
5. Discovering The Waterfront (submitted by chloe17)
6. Defend You (submitted by NirvanaFan101)
7. My Heroine (submitted by fret13)
8. Always And Never (submitted by fret13)
9. Already Dead (submitted by kingnothing772)
10. Three Hours Back (submitted by aldenschulte)
11. Call It Karma (submitted by blacksg)

----------------------------------------------------------------------------
                          Your Sword Versus My Dagger
----------------------------------------------------------------------------

Silverstein - Your Sword Versus My Dagger

Drop D Tuning          figure out the strumming for yourself...not to hard


Gt.1            Intro
E|--------------------------------------------------------------------------|
B|--------------------------------------------------------------------------|
G|--------------------------------------------------------------------------|
D|-------2---3-2--------2---3-2---------------------------------------------|
A|-0p3p5---0------0p3p5---0-----3-------------------------------------------|
D|--------------------------------------------------------------------------|

Gt.2            Intro
E|-----------------------------------------------------------------------------|
B|-----------------------------------------------------------------------------|
G|---------10-10-10/-12--9-----------------------------------------------------|
D|-7-5------x--x--x---x--x-----------------------------------------------------|
A|-----7----8--8—-8/-10--7-----------------------------------------------------|
D|-----------------------------------------------------------------------------|

Verse  “im cutting through…”                  “…and I would tell the truth”
E|--------------------------------------------------------------------------|
B|--------------------------------------------------------------------------|
G|--------------------------------------------------------------------------|
D|-0-0-0-0---8-8-8-8--------------3-3-3-3---10-10-10-10---------------------|
A|-0-0-0-0---8-8-8-8--------------3-3-3-3---10-10-10-10---------------------|
D|-0-0-0-0---8-8-8-8--------------3-3-3-3---10-10-10-10---------------------|

Gt.2 Pre Chorus     “I wasn’t asking for the world…”
E|--------------------------------------------------------------------------|
B|--------------------------------------------------------------------------|
G|--------------------------------------------------------------------------|
D|-8-8-8-8-8---10-10-10-10-10-----------------------------------------------|
A|-8-8-8-8-8---10-10-10-10-10-----------------------------------------------|
D|-8-8-8-8-8---10-10-10-10-10-----------------------------------------------|

Gt.1 Pre Chorus
E|--------------------------------------------------------------------------|
B|--------------------------------------------------------------------------|
G|--------------------------------------------------------------------------|
D|-------2---3-2--------2---3-2---------------------------------------------|
A|-0p3p5---0------0p3p5---0-----3-------------------------------------------|
D|--------------------------------------------------------------------------|

Gt.1 and 2  “All these city streets the people look the same…”
E|--------------------------------------------------------------------------|
B|--------------------------------------------------------------------------|
G|--------------------------------------------------------------------------|
D|-8-8-8-8--10-10-10-10--0-0-0-0--3-3-3-3-----------------------------------|
A|-8-8-8-8--10-10-10-10--0-0-0-0--3-3-3-3-----------------------------------|
D|-8-8-8-8--10-10-10-10--0-0-0-0--3-3-3-3-----------------------------------|

Gt.1 Bridge

E|--------------------------------------------------------------------------|
B|--------------------------------------------------------------------------|
G|-0-0-0-2-0-3-2-----0-0-0-2-0-3-2-0----8-8-8-8-10-10-10-10-----------------|
D|-0-0-0-2-0-3-2-----0-0-0-2-0-3-2-0----8-8-8-8-10-10-10-10-----------------|
A|-0-0-0-2-0-3-2-----0-0-0-2-0-3-2-0----8-8-8-8-10-10-10-10-----------------|
D|--------------------------------------------------------------------------|

*palm muted
“Drink the poison when you think its over…”

E|--------------------------------------------------------------------------|
B|--------------------------------------------------------------------------|
G|--------------------------------------------------------------------------|
D|-0-0-0-0-0-0-0-0-3-3-3-3-3-3-3-3-8-8-8-8-8-8-8-8-10-10-10-10-8-8-7-7------|
A|-0-0-0-0-0-0-0-0-3-3-3-3-3-3-3-3-8-8-8-8-8-8-8-8-10-10-10-10-8-8-7-7------|
D|-0-0-0-0-0-0-0-0-3-3-3-3-3-3-3-3-8-8-8-8-8-8-8-8-10-10-10-10-8-8-7-7------|

Gt.2 Bridge

E|--------------------------------------------------------------------------|
B|--------------------------------------------------------------------------|
G|-7-7-7-7-7-7-7-7-5-5-5-5-5-5-5-5-10-10-10-10-10-10-10-10------------------|
D|-x-x-x-x-x-x-x-x-x-x-x-x-x-x-x-x--x--x--x--x--x--x--x--x------------------|
A|-5-5-5-5-5-5-5-5-3-3-3-3-3-3-3-3--8--8--8--8--8--8--8--8------------------|
D|--------------------------------------------------------------------------|

E|--------------------------------------------------------------------------|
B|--------------------------------------------------------------------------|
G|-14-14-14-14-12-12-12/-14/-12---------------------------------------------|
D|--x--x--x--x--x--x--x---x---x---------------------------------------------|
A|-12-12-12-12-10-10-10/-12/-10---------------------------------------------|
D|--------------------------------------------------------------------------|


-----------------------------------------------------------------------------
                         Smile In Your Sleep
-----------------------------------------------------------------------------

intro and verse(only guitar one plays this)

 L L R  L L R  L R    L L R  L L R  L R
E--------------------|---------------------|
B--------------------|---------------------|
G--------------------|--------------------*|x 2
D---9------9-17---16-|---9-19---9-16---17-*|
A-7---15-7------7----|-7------7------7-----|
d--------------------|---------------------|

  L L R  L L R  L R    L L R  L L R  L R
E--------------------|--------------------|
B--------------------|--------------------|
G--------------------|--------------------|
D---5-12---5-14---12-|---5-16---5-12---14-|
A-3------3------3----|-3------3------3----|
d--------------------|--------------------|

  L L R  L L R  L R    L L R  L L R  L R
E--------------------|--------------------|
B--------------------|--------------------|
G--------------------|--------------------|
D---7-17---7-16---14-|---7-12---7-14---16-|
A-5------5------5----|-5------5------5----|
d--------------------|--------------------|


Chorus
(guitar 1)
e-------------|
b-------------|
g--9-5-x-9-5--|x1
d--9-5-x-9-5--|
a--7-3-x-7-3--|(0:31-0:52)
d--7-3-x-7-3--|

Guitar 2 chorus
e---------------------------------------------------------------|
b---------------------------------------------------------------|
g---------------------------------------------------------------|
d---------------------------------------------------------------|
a--14-14-12-12--14-14-12-12--14-14-12-12--10-10-9-9--10-10-9-9--|
d---------------------------------------------------------------|

e---------------------------------------15--|
b-------------------------------------------|
g-------------------------------------------|x1
d-------12------12------12------12----------|
a--9-10----9-10----9-10----9-10----9-10-----|(0:42-0:52)
d-------------------------------------------|

verse(only guitar one plays this)

 L L R  L L R  L R    L L R  L L R  L R
E--------------------|---------------------|
B--------------------|---------------------|
G--------------------|--------------------*|x 2
D---9------9-17---16-|---9-19---9-16---17-*|
A-7---15-7------7----|-7------7------7-----|
d--------------------|---------------------|

  L L R  L L R  L R    L L R  L L R  L R
E--------------------|--------------------|
B--------------------|--------------------|
G--------------------|--------------------|
D---5-12---5-14---12-|---5-16---5-12---14-|
A-3------3------3----|-3------3------3----|
d--------------------|--------------------|

  L L R  L L R  L R    L L R  L L R  L R
E--------------------|--------------------|
B--------------------|--------------------|
G--------------------|--------------------|
D---7-17---7-16---14-|---7-12---7-14---16-|
A-5------5------5----|-5------5------5----|
d--------------------|--------------------|


just before 2nd chorus theres a pickslide on the EA strings

then play

Chorus 2
e-------------|
b-------------|
g--9-5-x-9-5--|x1
d--9-5-x-9-5--|
a--7-3-x-7-3--|(1:14-1:34)
d--7-3-x-7-3--|


guitar 2 chorus2
e---------------------------------------------------------------|
b---------------------------------------------------------------|
g---------------------------------------------------------------|
d---------------------------------------------------------------|
a--14-14-12-12--14-14-12-12--14-14-12-12--10-10-9-9--10-10-9-9--|
d---------------------------------------------------------------|

e---------------------------------------15--|
b-------------------------------------------|
g-------------------------------------------|x1
d-------12------12------12------12----------|
a--9-10----9-10----9-10----9-10----9-10-----|(1:24-1:34)
d-------------------------------------------|

e--15-15-14-14--------|
b--------------15-15--|
g---------------------|x3
d---------------------|
a---------------------|(1:47-1:53)
d---------------------|

heavy bridge part with slight palm mute i think.


e-----------|
b-----------|
g----5-7-4--|x2
d--2-5-7-4--|
a--2-3-5-2--|
d--2--------|

e-----------|
b-----------|
g----5-7-4--|x2
d--2-5-7-4--|
a--2-3-5-2--|
d--2--------|

as each chord above is played this time guitar 2 plays

e--15-15-14-14--------|
b--------------15-15--|
g---------------------|x3
d---------------------|
a---------------------|(1:47-1:53)
d---------------------|
screamy interlude/brige

E|-------------------------------------------------------------------------------------|
b|-------------------------------------------------------------------------------------|
g|-9-9-12-12-11-11-9-9-9-9-12-12-11-11-9-9-9-9-12-12-11-11-9-9-9-9-12-12-11-11-9-9-----|
d|-x-x-x--x--x--x--x-x-x-x-x--x--x--x--x-x-x-x-x--x--x--x--x-x-x-x-x--x--x--x--x-x-----|
a|-7-7-10-10-9--9--7-7-7-7-10-10-9--9--7-7-7-7-10-10-9--9--7-7-7-7-10-10-9--9--7-7-----|
d|-------------------------------------------------------------------------------------|

E|-------------------------------------------------------------------------------------|
b|-------------------------------------------------------------------------------------|
g|-14-14-14-14-14-14-12-12-12-12-12-12-14-14-14-14-14-14-16-16-16-16-16-16-------------|
d|-x--x--x--x--x--x--x--x--x--x--x--x--x--x--x--x--x--x--x--x--x--x--x--x--------------|
a|-12-12-12-12-12-12-10-10-10-10-10-10-12-12-12-12-12-12-14-14-14-14-14-14-------------|
d|-------------------------------------------------------------------------------------|

Guitar 1
quiet tapping interlude (x2)
  L L R  L L R  L R    L L R  L L R  L R
E--------------------|--------------------|
B--------------------|--------------------|
G--------------------|--------------------|
D---9-17---9-17---17-|---9-19---9-19---19-|
A-7------7------7----|-7------7------7----|
d--------------------|--------------------|

  L L R  L L R  L R    L L R  L L R  L R
E--------------------|--------------------|
B--------------------|--------------------|
G--------------------|--------------------|
D---9-21---9-21---21-|---9-21---9-21---21-|
A-7------7------7----|-7------7------7----|
d--------------------|--------------------|

  L L R  L L R  L R    L L R  L L R  L R
E--------------------|--------------------|
B--------------------|--------------------|
G--------------------|--------------------|
D---5-17---5-17---17-|---5-16---5-16---16-|
A-3------3------3----|-3------3------3----|
d--------------------|--------------------|

L L R  L L R  L R    L L R  L L R  L R
E--------------------|--------------------|
B--------------------|--------------------|
G--------------------|--------------------|
D---7-17---7-17---17-|---7-14---7-14---14-|
A-5------5------5----|-5------5------5----|
d--------------------|--------------------|


Chorus 3 (guitar 1)
e-------------|
b-------------|
g--9-5-x-9-5--|x1
d--9-5-x-9-5--|
a--7-3-x-7-3--|(2:42-3:02)
d--7-3-x-7-3--|

Chorus 3(guitar 2)
e---------------------------------------------------------------|
b---------------------------------------------------------------|
g---------------------------------------------------------------|
d---------------------------------------------------------------|
a--14-14-12-12--14-14-12-12--14-14-12-12--10-10-9-9--10-10-9-9--|
d---------------------------------------------------------------|

e---------------------------------------15--|
b-------------------------------------------|
g-------------------------------------------|x1
d-------12------12------12------12----------|
a--9-10----9-10----9-10----9-10----9-10-----|(2:52-3:02)
d-------------------------------------------|

e--15-15-14-14--------|
b--------------15-15--|
g---------------------|x3
d---------------------|
a---------------------|(3:04-3:10)
d---------------------|

finsh with the heavy slight palm muting

e-------------|
b-------------|
g----5-7-4----|x1
d--2-5-7-4-2--|
a--2-3-5-2-2--|(3:02-3:13)
d--2-------2--|

e--15-15-14-14--------|
b--------------15-15--|
g---------------------|x3
d---------------------|
a---------------------|(3:04-3:10)
d---------------------|


----------------------------------------------------------------------------
                         The Ides Of March
----------------------------------------------------------------------------

tuning: dropped d (DADGBe)

before intro and intro-guitar 1-gradually get louder
(this is the only part im not sure about)
e|-------------------------------------------------------------------------|
B|-------------------------------------------------------------------------|
G|------11b-(x4)-----------------------------------------------------------|
D|----------------------11b9---------11b9------11b7or----11b7or---(x2)-----|
A|---------------------9------------9---------9---12----9---12-------------|
D|-----------------9-9-----------9----------0----------0-------------------|

intro-guitar 2-you can barely hear it but uts there.
it needs synchronization play with the song
e|--------------(12)-------------------------------------------------------|
B|--------------(12)-------------------------------------------------------|
G|-11--11/13---------(x2)--------------------------------------------------|
D|-------------------------------------------------------------------------|
A|-------------------------------------------------------------------------|
D|-------------------------------------------------------------------------|

pre-corus-guitar 1-this was hard but i think i have it
e|-------------------------------------------------------------------------|
B|-------------------------------------------------------------------------|
G|-------7-----------6-----------7-----------7-----------6-----------6-----|
D|----9-9-9-------9-9-9-------9-9-9-------9-9-9-------9-9-9-------9-9-9----|
A|-9---9---9---9---9---9---9---9---9---9---9---9---9---9---9---9---9---9---|
D|-------------------------------------------------------------------------|

e|----------------------x--------------------------------------------------|
B|----------------------x--------------------------------------------------|
G|-------7--------------x-(x8)---------------------------------------------|
D|----9-9-9-------9-9---x--------------------------------------------------|
A|-9---9---9---9---9----x--------------------------------------------------|
D|----------------------x--------------------------------------------------|

pre-chorus-guitar 2
e|-------------------------------------------------------------------------|
B|-------------------------------------------------------------------------|
G|-------------------------------------------------------------------------|
D|-9------0------2------------9------0-----2----9-(x8)---------------------|
A|-9------0------2------------9------0-----2----9--------------------------|
D|-9------0------2------------9------0-----2----9--------------------------|
                                                .
chorus-guitar1
e|-------------------------------------------------------------------------|
B|-------------------------------------------------------------------------|
G|--9--x--11--x--7--x--9-9-11----------------------------------------------|
D|--x--x---x--x--x--x--x-x--x---(x2)---------------------------------------|
A|--7--x---9--x--5--x--7-7--9----------------------------------------------|
D|-------------------------------------------------------------------------|

chorus-guitar2
e|-------------------------------------------------------------------------|
B|-------------------------------------------------------------------------|
G|-------------------------------------------------------------------------|
D|--9-9-9-9-0-0-0-0-2-2-2-2-5-5-5-5--(x2)----------------------------------|
A|--9-9-9-9-0-0-0-0-2-2-2-2-5-5-5-5----------------------------------------|
D|--9-9-9-9-0-0-0-0-2-2-2-2-5-5-5-5----------------------------------------|

play the verse again. do not play the pre-chorus but play
the last note. then play the chorus two more times.

bridge-guitar 1-it really isnt that hard. play fast
e|-------------------------------------------------------------------------|
B|-------------------------------------------------------------------------|
G|---------------------11---(x2)---11-------11--------------11-----x4------|
D|------12-9-9-12-9-12-----------9---12-9-9----12-9-12-9-12----------------|
A|-------------------------------------------------------------------------|
D|-\0----------------------------------------------------------------------|

bridge-guitar 2-scratch up neck. play with song
e|-------------------------------------------------------------------------|
B|-------------------------------------------------------------------------|
G|-------------------------------------------------------------------------|
D|-9--9-9-9----9--9-9-9------2-4---2-4---4-4-4-2-2-2------x4--exept-first--|
A|-9--9-9-9----9--9-9-9-----2-2---2-2----------------------------part------|
D|-9--9-9-9----9--9-9-9----------------------------------------------------|

bridge-guitar 3-yes shane busts out a guitar
no questions asked i am positive
e|-------------------------------------------------------------------------|
B|-------------------------------------------------------------------------|
G|-------------------------------------------------------------------------|
D|-9-9-9-9-9-9-0-0-0-0-0-0-2-2-2-2-2-2-2-2-2-2-2-2---x4--------------------|
A|-9-9-9-9-9-9-0-0-0-0-0-0-2-2-2-2-2-2-2-2-2-2-2-2-------------------------|
E|-9-9-9-9-9-9-0-0-0-0-0-0-2-2-2-2-2-2-2-2-2-2-2-2-------------------------|

then play pre-chorus(except guitar 3
is palm muting a 999 chord) and the
chorus one mor time. then end with
the solo guitar one has at the bridge.
this is an awesome song like every
other sing by silverstein.


----------------------------------------------------------------------------
                      Fist Wrapped In Blood
----------------------------------------------------------------------------

Intro: Guitar 1
-------------5---6---5-----------|-------------------|
-3-3-5p3-6p3---3---3---3-6p3-5h6-|-8-8-6-6-5-5-6-6-8-|
---------------------------------|-------------------|
---------------------------------|-------------------|
---------------------------------|-------------------|
---------------------------------|-------------------|
play this thrice (x3)             then this at the end

Intro: Guitar 2
-------------------------------------|
-------------------------------------|
-------------------------------------|
-0~---------------8~-------10~----10-|
-0~---------------8~-------10~----10-|
-0~---------------8~-------10~----10-|

Pre Verse (x2)
------------------------------------|-----------|------------|
------------------------------------|-----------|------------|
----10--10-9----10--10-9----10--10-9|-12-10-9-5-|-12-14-12-9-|
-00-x---x--x-88-x---x--x-77-x---x--x|-x--x--x-x-|-x--x--x--x-|
-00-8---8--7-88-8---8--7-77-8---8--7|-10-8--7-3-|-10-12-10-7-|
-00----------88----------77---------|-----------|------------|
Both Guitars                          Guitar 1    Guitar 2

1st Verse: Both Guitars
-------------------------------------------------------------------------|
-------------------------------------------------------------------------|
--------------10p9--------------10p9--------------10p9-------------------|
-000000000000------888888888888------777777777777------33333333-22222223-|
-000000000000------888888888888------777777777777------33333333-22222223-|
-000000000000------888888888888------777777777777------33333333-22222223-|

-------------------------------------------------------------------------|
-------------------------------------------------------------------------|
--------------10p9--------------10p9--------------10p9-------------------|
-000000000000------888888888888------777777777777------33333333-77777777-|
-000000000000------888888888888------777777777777------33333333-77777777-|
-000000000000------888888888888------777777777777------33333333-77777777-|


Chorus: Both Guitars (x2)
--------------------------------------|
--------------------------------------|
-------------------7777-5555-33333333-|
-33333333-55555555-7777-5555-33333333-|
-33333333-33333333-5555-3333-11111111-|
-33333333-22222222--------------------|

Interlude (x2)
------------------------------------|-----------|------------|
------------------------------------|-----------|------------|
----10--10-9----10--10-9----10--10-9|-12-10-9-5-|-12-14-12-9-|
-00-x---x--x-88-x---x--x-77-x---x--x|-x--x--x-x-|-x--x--x--x-|
-00-8---8--7-88-8---8--7-77-8---8--7|-10-8--7-3-|-10-12-10-7-|
-00----------88----------77---------|-----------|------------|
Both Guitars                          Guitar 1    Guitar 2

2nd Verse: Guitar 1
-------------------------------------------------------------------|
-------------------------------------------------------------------|
-----9-9h10-9--------9-9h10-9--------9-9h10-9----------------------|
--------------10--------------10--------------10-33333333-22222222-|
---0---------------8---------------7-------------33333333-22222222-|
-0---------------8---------------7---------------33333333-22222222-|

-------------------------------------------------------------------|
-------------------------------------------------------------------|
-----9-9h10-9--------9-9h10-9--------9-9h10-9----------------------|
--------------10--------------10--------------10-33333333-77777777-|
---0---------------8---------------7-------------33333333-77777777-|
-0---------------8---------------7---------------33333333-77777777-|

2nd Verse: Guitar 2
-------------------------------------------------------------------|
------------------------------------------8h10-8-------------------|
-9h10-9----------9h10-9----------9h10-9----------------------------|
--------10~-------------10~------------10--------33333333-22222222-|
-------------------------------------------------33333333-22222222-|
-------------------------------------------------33333333-22222222-|

-------------------------------------------------------------------|
------------------------------------------8h10-8-------------------|
-9h10-9----------9h10-9----------9h10-9----------------------------|
--------10~-------------10~------------10--------33333333-77777777-|
-------------------------------------------------33333333-77777777-|
-------------------------------------------------33333333-77777777-|

Chorus

Pre-Outro: Guitar 1
-------------5---6---5-----------|--------------------------------------|
-3-3-5p3-6p3---3---3---3-6p3-5h6-|--------------------------------------|
---------------------------------|--------------------------------------|
---------------------------------|-10-----------------------------------|
---------------------------------|-10-(x24-gradually release palm mute)-|
---------------------------------|-10-----------------------------------|
play this thrice (x3)             then this at the end

Pre-Outro: Guitar 2
-------------------------------------|
-------------------------------------|
-------------------------------------|
-0~---------------8~-------10~----10-|
-0~---------------8~-------10~----10-|
-0~---------------8~-------10~----10-|

Outro: Guitar 1
-----------------------------------------------------|
-----------------------------------------------------|
-17--17-17-14--14-14-15--15-15-14-15-14--14-----\----|
-x---x--x--x---x--x--x---x--x--x--x--x---x--->3x-\---|
-15--15-15-12--12-12-13--13-13-12-13-12--12-/-----\--|
---------------------------------------------------\-|
                                               3
----------------------------------------------------| times
----------------------------------------------------|
--------10101010101010-------101010101010-----------|
-000000-x-x-x-x-x-x-x-000000-x-x-x-x-x-x--->1x------|
-000000-8-8-8-8-8-8-8-000000-8-8-8-8-8-8--/---------|
-000000---------------000000------------------------|
 ......               ......

---------------------------------------------|
---------------------------------------------|
--------10101010101010-------101010101010-\--|
-000000-x-x-x-x-x-x-x-000000-x-x-x-x-x-x-----|2x
-000000-8-8-8-8-8-8-8-000000-8-8-8-8-8-8-----|
-000000---------------000000-----------------|
 ......               ......

Outro: Guitar 2
-----------------------------------------------------|
-----------------------------------------------------|
-----------------------------------------------------|
-8-888-888-888-887-777-777-777-778-888-888-888-88-\--|
-8-888-888-888-887-777-777-777-778-888-888-888-88----|3x
-8-888-888-888-887-777-777-777-778-888-888-888-88----|


------------------------------------------|
------------------------------------------|
--------10101010101010-------101010101010-|
-000000-x-x-x-x-x-x-x-000000-x-x-x-x-x-x--|
-000000-8-8-8-8-8-8-8-000000-8-8-8-8-8-8--|
-000000---------------000000--------------|
 ......               ......

-----------------------------------------------------|
-----------------------------------------------------|
-----------------------------------------------------|
-8-888-888-888-887-777-777-777-778-888-888-888-88-\--|
-8-888-888-888-887-777-777-777-778-888-888-888-88----|3x
-8-888-888-888-887-777-777-777-778-888-888-888-88----|


---------------------------------------------|
---------------------------------------------|
--------101010101010-------14-14-14-14-14-14-|
-000000-x-x-x-x-x-x-000000-x--x--x--x--x--x--|
-000000-8-8-8-8-8-8-000000-12-12-12-12-12-12-|
-000000-------------000000-------------------|
 ......             ......

-----------------------------------------------------|
-----------------------------------------------------|
-----------------------------------------------------|
-8-888-888-888-887-777-777-777-778-888-888-888-88-\--|
-8-888-888-888-887-777-777-777-778-888-888-888-88----|3x
-8-888-888-888-887-777-777-777-778-888-888-888-88----|

------------------------------------------------------|
------------------------------------------------------|
--------14-14-14-14-14-14--------14-14-14-14-14-14-\--|
-000000-x--x--x--x--x--x--000000-x--x--x--x--x--x-----|3x
-000000-12-12-12-12-12-12-000000-12-12-12-12-12-12----|
-000000-------------------000000----------------------|
 ......                   ......

Ending: (x3)     End on:
------------------|---------|
------------------|---------|
------------------|---------|
-00-0-00-00000000-|-00-0-00-|
-00-0-00-00000000-|-00-0-00-|
-00-0-00-00000000-|-00-0-00-|
 .. . .. ........   .. . ..


----------------------------------------------------------------------------
                   Discovering The Waterfront
----------------------------------------------------------------------------

Tuning: standard


intro
e|------0------0------0-------0--------0--------0------0--------------------|
B|-----3------3------3-------3--------3--------3-------3--------------------|
G|----0------0------0-------0--------0--------0--------0--------------------|
D|---0------0------0-------0--------0--------0---------0--------------------|
A|--2------0-----------------------2--------0----------0--------------------|
E|----------------3-------3----------------------------3--------------------|


verse
e|------0-------0--------0-------0--------0--------0-------0--------0-------|
B|-----3-------3--------3-------3--------3--------3-------3--------3--------|
G|----0-------0--------0-------0--------0--------0-------0--------0---------|
D|---0-------0--------0-------0--------0--------0-------0--------0----------|
A|--2-------0-------------------------2--------0----------------------------|
E|-------------------3-------3-------------------------3--------3-----------|

e|------0-------0--------0-------0--------0--------0-------0--------0-------|
B|-----3-------3--------3-------3--------3--------3-------3--------3--------|
G|----0-------0--------0-------0--------0--------0-------0--------0---------|
D|---0-------0--------0-------0--------0--------0-------0--------0----------|
A|--2-------0-------------------------2--------0----------------------------|
E|------------------3-------3-------------------------3--------3------------|

e|-------0------0------0-------0----------0---------0-------0-------------------------|
B|------3------3------3-------3----------3---------3--------3-------------------------|
G|-----0------0------0-------0----------0---------0---------0-------------------------|
D|----0------0------0-------0----------0---------0----------0-------------------------|
A|---2------0-------------------------2---------0-----------0-------------------------|
E|-----------------3-------3--------------------------------3-------------------------|

chorus
e|----------------------------------------------------------------|
B|----------------------------------------------------------------|
G|----------------------------------------------------------------|
D|--9-9-9-9-9-12-12-12-12-12-14-14-14-14-14-5-5-5-5-5-------------|
A|--9-9-9-9-9-12-12-12-12-12-14-14-14-14-14-5-5-5-5-5--------x 2--|
E|--7-7-7-7-7-10-10-10-10-10-12-12-12-12-12-3-3-3-3-3-------------|

e|-------------------------------------------------------------------------|
B|-------------------------------------------------------------------------|
G|-------------------------------------------------------------------------|
D|--9-9-9-9-9-9-12-12-12-12-12-12-14-14-14-14-14-14-5-5-5-5-5-5------------|
A|--9-9-9-9-9-9-12-12-12-12-12-12-14-14-14-14-14-14-5-5-5-5-5-5-------x 2--|
E|--7-7-7-7-7-7-10-10-10-10-10-10-12-12-12-12-12-12-3-3-3-3-3-3------------|


verse
e|------0-------0--------0-------0--------0--------0-------0--------0------------------|
B|-----3-------3--------3-------3--------3--------3-------3--------3-------------------|
G|----0-------0--------0-------0--------0--------0-------0--------0--------------------|
D|---0-------0--------0-------0--------0--------0-------0--------0---------------------|
A|--2-------0-------------------------2--------0---------------------------------------|
E|-------------------3-------3-------------------------3--------3----------------------|

e|------0-------0--------0-------0--------0--------0-------0--------0------------------|
B|-----3-------3--------3-------3--------3--------3-------3--------3-------------------|
G|----0-------0--------0-------0--------0--------0-------0--------0--------------------|
D|---0-------0--------0-------0--------0--------0-------0--------0---------------------|
A|--2-------0-------------------------2--------0---------------------------------------|
E|-------------------3-------3-------------------------3--------3----------------------|

e|-------0------0------0-------0----------0---------0-------0-------------------------|
B|------3------3------3-------3----------3---------3--------3-------------------------|
G|-----0------0------0-------0----------0---------0---------0-------------------------|
D|----0------0------0-------0----------0---------0----------0-------------------------|
A|---2------0-------------------------2---------0-----------0-------------------------|
E|-----------------3-------3--------------------------------3-------------------------|


Bridge x 4
e|--------------------------------------------------------------------------|
B|--------------------------------------------------------------------------|
G|--------------------------------------------------------------------------|
D|-5-5-5-5-5-5-5-5-7-7-7-7-7-7-7-7-9-9-9-9-9-9-9-9-12-12-12-12-12-12-12-12--|
A|-5-5-5-5-5-5-5-5-7-7-7-7-7-7-7-7-9-9-9-9-9-9-9-9-12-12-12-12-12-12-12-12--|
E|-3-3-3-3-3-3-3-3-5-5-5-5-5-5-5-5-7-7-7-7-7-7-7-7-10-10-10-10-10-10-10-10--|

interlude x 2
e|--------------------------------------------------------------------0--|
B|--------3--3-----------------3--3----3-------3--3----------------3-----|
G|--0----------0---0-----0----------0----0---------0---0-----0-------0---|
D|----0-0--------0---0-0---0-0-------0-----0-0-------0---0-0---0-0-------|
A|-----------------------------------------------------------------------|
E|-----------------------------------------------------------------------|

e|--------------------------------------------------------------------3/6/9--|
B|--------3--3-----------------3--3----3-------3--3----------------3---------|
G|--0----------0---0-----0----------0----0---------0---0-----0-------0-------|
D|----0-0--------0---0-0---0-0-------0-----0-0-------0---0-0---0-0-----------|
A|---------------------------------------------------------------------------|
E|---------------------------------------------------------------------------|

chorus


e|----------------------------------------------------------------|
B|----------------------------------------------------------------|
G|----------------------------------------------------------------|
D|--9-9-9-9-9-12-12-12-12-12-14-14-14-14-14-5-5-5-5-5-------------|
A|--9-9-9-9-9-12-12-12-12-12-14-14-14-14-14-5-5-5-5-5--------x 2--|
E|--7-7-7-7-7-10-10-10-10-10-12-12-12-12-12-3-3-3-3-3-------------|

e|-------------------------------------------------------------------------|
B|-------------------------------------------------------------------------|
G|-------------------------------------------------------------------------|
D|--9-9-9-9-9-9-12-12-12-12-12-12-14-14-14-14-14-14-5-5-5-5-5-5------------|
A|--9-9-9-9-9-9-12-12-12-12-12-12-14-14-14-14-14-14-5-5-5-5-5-5-------x 2--|
E|--7-7-7-7-7-7-10-10-10-10-10-10-12-12-12-12-12-12-3-3-3-3-3-3------------|

Play this until end

e|---------------------------------------------------------------|
B|---------------------------------------------------------------|
G|---------------------------------------------------------------|
D|--9-9-9-9-9-9-12-12-12-12-12-12-14-14-14-14-14-14-5-5-5-5-5-5--|
A|--9-9-9-9-9-9-12-12-12-12-12-12-14-14-14-14-14-14-5-5-5-5-5-5--|
E|--7-7-7-7-7-7-10-10-10-10-10-10-12-12-12-12-12-12-3-3-3-3-3-3--|


----------------------------------------------------------------------------
                               Defend You
----------------------------------------------------------------------------


Intro:

e--------------------------------|
B--------------------------------|
G--------------------------------|
D-xx-545-xx-545-xx-545-xx-545----|
A-xx-777-xx-777-xx-777-xx-777----|
E--------------------------------|

e--------------------------------|
B--------------------------------|
G--------------------------------|
D-5555-6666-5555-4444------------|
A-7777-7777-3333-2222------------|
E--------------------------------|

e--------------------------------|
B--------------------------------|
G--------------------------------|
D-xx-545-xx-545-xx-545-xx-545----|
A-xx-777-xx-777-xx-777-xx-777----|
E--------------------------------|

e--------------------------------|
B--------------------------------|
G--------------------------------|
D-5555-6666-5555-4444-5-4-5-7----|
A-7777-7777-3333-2222-3-2-3-5----|
E--------------------------------|

e--------------------------------|
B--------------------------------|
G--------------------------------|
D-xx-545-xx-545-xx-545-xx-545----|
A-xx-777-xx-777-xx-777-xx-777----|
E--------------------------------|

e--------------------------------|
B--------------------------------|
G--------------------------------|
D-5555-6666-5555-4444------------|
A-7777-7777-3333-2222------------|
E--------------------------------|


 Pre Chorus (the part I changed a bit):

e--------------------------------|
B--------------------------------|
G--------------------------------|
D--222-555-444-666---------------|
A--222-555-444-666---------------|
E--000-333-222-444---------------|
pm ... ... ... ...


 Chorus (I think this is right...probably the end part isn't) :

e--------------------------------|
B--------------------------------|
G-5>---------11-11-12-11-9-8-----|
D-5>--5>--9>-x--x--x--x--x-x-----|
A-3>--5>--9>-9--9--10-9--7-6-----|
E-----3>--7>---------------------|

e-------------------------|-------------|
B-------------------------|-------------|
G-5>----------------------|-------------|
D-5>--5>--9>--555-555-555-|-------------|
A-3>--5>--9>--555-555-555-|-------------|
E-----3>--7>--333-333-333-|-0h3p20203/5-|
pm            ..  ..  ..


Then you play the intro again then the pre chorus and chorus.


 Bridge:

e-----------------|-----------------------|
B-----------------|-----------------------|
G--0-----0---0--0-|------7-4--------------|
D---4-----4-------|---------------7-5-4-5-|
A-----------------|-----------------------|
E-0---0h5---8--7--|-0h5p0----0h5p0--------|

e---------------------------------------------------------|
B-8-7-10-9-8-7-10-7-----8-7-8-7-7/8-7-8-7-8-7-------------|
G-9-9-9--9-9-9-9--9-----9-9-9-9-9-9-9-9-9-9-9-------------|
D--------------------579----------------------22-55-44-55-|
A-------------------7-------------------------22-55-44-55-|
E---------------------------------------------00-33-22-33-|


 Then play the chorus again and end on...

D-2~--
A-2~--
E-0~--


----------------------------------------------------------------------------
                                My Heroine
----------------------------------------------------------------------------
Tuning: standard

GUITAR 1

|----------------------------------------------------|x4
|----------------------------------------------------|
|--------0-------------0-------------0-----0----0----|
|---9---------0---0---------0----0-------0----0-----0|
|-----10---10-------10---10--------9---9----9-----9--|
|-0-------------8-------------10---------------------|

|----------------------------------------|
|----------------------------------------|
|----------------------------------------|
|--------0------0-------------0------0---|
|---10-----10-----10-----9------9------9-|
|-8----8------8-------10---10-----10-----|
                                                    x2
-----------------------------------------------|
-----------------------------------------------|
---------------------------------12------12----|
----------0-------12----------------0-------0--|
----10------10-------10----10---------10-------|
-12----12------12-------12----12---------------|

pre-chorus-distorted
|-----------------------------------------------------|
|-----------------------------------------------------|
|---------------5--5-5--5-5-5-------------------------|
|-2--2-2--2-2-2-5--5-5--5-5-5-4--4-4--4-4-4-5-4-7-4-5-|
|-2--2-2--2-2-2-3--3-3--3-3-3-5--5-5--5-5-5-5-5-5-5-5-|
|-0--0-0--0-0-0---------------------------------------|

|-------------------------------------------------------|
|-------------------------------------------------------|
|---------------5--5-5--5-5-5---------------------------|
|-2--2-2--2-2-2-5--5-5--5-5-5-4--4-4--4-4-4-5-4-5-5-4---|
|-2--2-2--2-2-2-3--3-3--3-3-3-5--5-5--5-5-5-5-5-5-5-5---|
|-0--0-0--0-0-0---------------------------------------0-|

chorus
|-----------------------------------------------------------------|
|-----------------------------------------------------------------|
|-9-9-9-9-9-9-9-9-11-11-11-11-11-11-11-11-12-12-12-12-12-12-12-12-|
|-x-x-x-x-x-x-x-x--x--x--x--x--x--x--x--x--x--x--x--x--x--x--x--x-|
|-7-7-7-7-7-7-7-7--9--9--9--9--9--9--9--9-10-10-10-10-10-10-10-10-|
|-----------------------------------------------------------------|

|-------------------------|
|-------------------------|
|-------------------------|
|-12--12-10-10-9-9-7------|
|-------------------------|
|-------------------------|

|-----------------------------------------------------------------|
|-----------------------------------------------------------------|
|-9-9-9-9-9-9-9-9-11-11-11-11-11-11-11-11-12-12-12-12-12-12-12-12-|
|-x-x-x-x-x-x-x-x--x--x--x--x--x--x--x--x--x--x--x--x--x--x--x--x-|
|-7-7-7-7-7-7-7-7--9--9--9--9--9--9--9--9-10-10-10-10-10-10-10-10-|
|-----------------------------------------------------------------|

|-------------------------|
|-------------------------|
|-12-12-12-12-12-12-12-12-|
|--x--x--x--x--x--x--x--x-|
|-10-10-10-10-10-10-10-10-|
|-------------------------|

|-----------------------------------------------------------------|
|-----------------------------------------------------------------|
|-9-9-9-9-9-9-9-9-11-11-11-11-11-11-11-11-12-12-12-12-12-12-12-12-|
|-x-x-x-x-x-x-x-x--x--x--x--x--x--x--x--x--x--x--x--x--x--x--x--x-|
|-7-7-7-7-7-7-7-7--9--9--9--9--9--9--9--9-10-10-10-10-10-10-10-10-|
|-----------------------------------------------------------------|

|-------------------------|
|-------------------------|
|-12-12-12-12-12-12-12-12-|
|--x--x--x--x--x--x--x--x-|
|-10-10-10-10-10-10-10-10-|
|-------------------------|

|----------------------------------------------------------------------|
|----------------------------------------------------------------------|
|-9-9-9-9-9-9-9-9-9-9-9-9-9-9-9-9-11-7-7-7-7-7-7-7-7-7-7-7-7-7-7-7-7-7-|
|-x-x-x-x-x-x-x-x-x-x-x-x-x-x-x-x--x-7-7-7-7-7-7-7-7-7-7-7-7-7-7-7-7-7-|
|-7-7-7-7-7-7-7-7-7-7-7-7-7-7-7-7--9-5-5-5-5-5-5-5-5-5-5-5-5-5-5-5-5-5-|
|------------------------------------.-.-.-.-.-.-.-.-------------------|

pre-chorus-distorted
|----------------------------------------------------|
|----------------------------------------------------|
|---------------5--5-5--5-5-5-7--7-7--7-7-7----------|
|-2--2-2--2-2-2-5--5-5--5-5-5-7--7-7--7-7-7-5-4-7-4-5|
|-2--2-2--2-2-2-3--3-3--3-3-3-5--5-5--5-5-5-5-4-7-4-5|
|-0--0-0--0-0-0-----------------------------3-2-5-2-3|

|-------------------------------------------------------|
|-------------------------------------------------------|
|---------------5--5-5--5-5-5-7--7-7--7-7-7-------------|
|-2--2-2--2-2-2-5--5-5--5-5-5-7--7-7--7-7-7-5-5-4-5-4---|
|-2--2-2--2-2-2-3--3-3--3-3-3-5--5-5--5-5-5-5-5-4-5-4---|
|-0--0-0--0-0-0-----------------------------3-3-2-3-2p0-|

chorus
|-----------------------------------------------------------------|
|-----------------------------------------------------------------|
|-9-9-9-9-9-9-9-9-11-11-11-11-11-11-11-11-12-12-12-12-12-12-12-12-|
|-x-x-x-x-x-x-x-x--x--x--x--x--x--x--x--x--x--x--x--x--x--x--x--x-|
|-7-7-7-7-7-7-7-7--9--9--9--9--9--9--9--9-10-10-10-10-10-10-10-10-|
|-----------------------------------------------------------------|

|-------------------------|
|-------------------------|
|-------------------------|
|-12--12-10-10-9-9-7------|
|-------------------------|
|-------------------------|

|-----------------------------------------------------------------|
|-----------------------------------------------------------------|
|-9-9-9-9-9-9-9-9-11-11-11-11-11-11-11-11-12-12-12-12-12-12-12-12-|
|-x-x-x-x-x-x-x-x--x--x--x--x--x--x--x--x--x--x--x--x--x--x--x--x-|
|-7-7-7-7-7-7-7-7--9--9--9--9--9--9--9--9-10-10-10-10-10-10-10-10-|
|-----------------------------------------------------------------|

|-------------------------|
|-------------------------|
|-12-12-12-12-12-12-12-12-|
|--x--x--x--x--x--x--x--x-|
|-10-10-10-10-10-10-10-10-|
|-------------------------|

|-----------------------------------------------------------------|
|-----------------------------------------------------------------|
|-9-9-9-9-9-9-9-9-11-11-11-11-11-11-11-11-12-12-12-12-12-12-12-12-|
|-x-x-x-x-x-x-x-x--x--x--x--x--x--x--x--x--x--x--x--x--x--x--x--x-|
|-7-7-7-7-7-7-7-7--9--9--9--9--9--9--9--9-10-10-10-10-10-10-10-10-|
|-----------------------------------------------------------------|

|-------------------------|
|-------------------------|
|-12-12-12-12-12-12-12-12-|
|--x--x--x--x--x--x--x--x-|
|-10-10-10-10-10-10-10-10-|
|-------------------------|

|----------------------------------------------------------------------|
|----------------------------------------------------------------------|
|-9-9-9-9-9-9-9-9-9-9-9-9-9-9-9-9-11-7-7-7-7-7-7-7-7-7-7-7-7-7-7-7-7-7-|
|-x-x-x-x-x-x-x-x-x-x-x-x-x-x-x-x--x-7-7-7-7-7-7-7-7-7-7-7-7-7-7-7-7-7-|
|-7-7-7-7-7-7-7-7-7-7-7-7-7-7-7-7--9-5-5-5-5-5-5-5-5-5-5-5-5-5-5-5-5-5-|
|------------------------------------.-.-.-.-.-.-.-.-------------------|

bridge
|-------------------------------------------------|
|-------------------------------------------------|
|-12-12-12-12-12-12-12-12-11-11-11-11-11-11-11-11-|
|--x--x--x--x--x--x--x--x--x--x--x--x--x--x--x--x-|
|-10-10-10-10-10-10-10-10--9--9--9--9--9--9--9--9-|
|-------------------------------------------------|

|-------------------------------------------------|
|-------------------------------------------------|
|-16-16-16-17-14-14-14-16-12-12-12-12-12-12-12-14-|
|--x--x--x--x--x--x--x--x--x--x--x--x--x--x--x--x-|
|-14-14-14-15-12-12-12-14-10-10-10-10-10-10-10-12-|
|-------------------------------------------------|

|-------------------------------------------------|
|-------------------------------------------------|
|-12-12-12-12-12-12-12-12-11-11-11-11-11-11-11-11-|
|--x--x--x--x--x--x--x--x--x--x--x--x--x--x--x--x-|
|-10-10-10-10-10-10-10-10--9--9--9--9--9--9--9--9-|
|-------------------------------------------------|

|-------------|
|-------------|
|-9----7----5-|
|-9----7----5-|
|-7----5----3-|
|-------------|

breakdown-clean
|----------------------------------------------------|x4
|----------------------------------------------------|
|--------0-------------0-------------0-----0----0----|
|---9---------0---0---------0----0-------0----0-----0|
|-----10---10-------10---10--------9---9----9-----9--|
|-0-------------8-------------10---------------------|

|----------------------------------------|
|----------------------------------------|
|----------------------------------------|
|--------0------0-------------0------0---|
|---10-----10-----10-----9------9------9-|
|-8----8------8-------10---10-----10-----|
                                                     x2
-----------------------------------------------|
-----------------------------------------------|
---------------------------------12------12----|
----------0-------12----------------0-------0--|
----10------10-------10----10---------10-------|
-12----12------12-------12----12---------------|

|---------------------------------|
|---------------------------------|
|-----------------7-7-7-7-7-7-7-7-|
|-2-2-2-2-2-2-2-2-7-7-7-7-7-7-7-7-|
|-2-2-2-2-2-2-2-2-5-5-5-5-5-5-5-5-|
|-0-0-0-0-0-0-0-0-----------------|
  . . . . . . . . . . . . . . . .

chorus
|-----------------------------------------------------------------|
|-----------------------------------------------------------------|
|-9-9-9-9-9-9-9-9-11-11-11-11-11-11-11-11-12-12-12-12-12-12-12-12-|
|-x-x-x-x-x-x-x-x--x--x--x--x--x--x--x--x--x--x--x--x--x--x--x--x-|
|-7-7-7-7-7-7-7-7--9--9--9--9--9--9--9--9-10-10-10-10-10-10-10-10-|
|-----------------------------------------------------------------|

|-------------------------|
|-------------------------|
|-------------------------|
|-12--12-10-10-9-9-7------|
|-------------------------|
|-------------------------|

|-----------------------------------------------------------------|
|-----------------------------------------------------------------|
|-9-9-9-9-9-9-9-9-11-11-11-11-11-11-11-11-12-12-12-12-12-12-12-12-|
|-x-x-x-x-x-x-x-x--x--x--x--x--x--x--x--x--x--x--x--x--x--x--x--x-|
|-7-7-7-7-7-7-7-7--9--9--9--9--9--9--9--9-10-10-10-10-10-10-10-10-|
|-----------------------------------------------------------------|

|-------------------------|
|-------------------------|
|-12-12-12-12-12-12-12-12-|
|--x--x--x--x--x--x--x--x-|
|-10-10-10-10-10-10-10-10-|
|-------------------------|

|-----------------------------------------------------------------|
|-----------------------------------------------------------------|
|-9-9-9-9-9-9-9-9-11-11-11-11-11-11-11-11-12-12-12-12-12-12-12-12-|
|-x-x-x-x-x-x-x-x--x--x--x--x--x--x--x--x--x--x--x--x--x--x--x--x-|
|-7-7-7-7-7-7-7-7--9--9--9--9--9--9--9--9-10-10-10-10-10-10-10-10-|
|-----------------------------------------------------------------|

|-------------------------|
|-------------------------|
|-12-12-12-12-12-12-12-12-|
|--x--x--x--x--x--x--x--x-|
|-10-10-10-10-10-10-10-10-|
|-------------------------|

|----------------------------------------------------------------------|
|----------------------------------------------------------------------|
|-9-9-9-9-9-9-9-9-9-9-9-9-9-9-9-9-11-7-7-7-7-7-7-7-7-7-7-7-7-7-7-7-7-7-|
|-x-x-x-x-x-x-x-x-x-x-x-x-x-x-x-x--x-7-7-7-7-7-7-7-7-7-7-7-7-7-7-7-7-7-|
|-7-7-7-7-7-7-7-7-7-7-7-7-7-7-7-7--9-5-5-5-5-5-5-5-5-5-5-5-5-5-5-5-5-5-|
|------------------------------------.-.-.-.-.-.-.-.-------------------|

outro
|----------------------------------------------------|
|----------------------------------------------------|
|---------------5--5-5--5-5-5-7--7-7--7-7-7----------|
|-2--2-2--2-2-2-5--5-5--5-5-5-7--7-7--7-7-7-5-4-7-4-5|
|-2--2-2--2-2-2-3--3-3--3-3-3-5--5-5--5-5-5-5-4-7-4-5|
|-0--0-0--0-0-0-----------------------------3-2-5-2-3|

===========================================================================

GUITAR 2

intro-slightly distroted-listen for
timing
|-------------|x2
|-------------|
|-9----5----7-|
|-9----5----7-|
|-7----3----5-|
|-------------|

|------------------|
|------------------|
|-5----7----9----7-|
|-5----7----9----7-|
|-3----5----7----5-|
|------------------|

|----------------------------------------|
|----------------------------------------|
|-5----7-----------------7-7-7-7-7-7-7-7-|
|-5----7-2-2-2-2-2-2-2-2-7-7-7-7-7-7-7-7-|
|-3----5-2-2-2-2-2-2-2-2-5-5-5-5-5-5-5-5-|
|--------0-0-0-0-0-0-0-0-----------------|
         . . . . . . . . . . . . . . . .

pre-chorus-distorted
|----------------------------------------------------|
|----------------------------------------------------|
|---------------5--5-5--5-5-5-7--7-7--7-7-7----------|
|-2--2-2--2-2-2-5--5-5--5-5-5-7--7-7--7-7-7-5-4-7-4-5|
|-2--2-2--2-2-2-3--3-3--3-3-3-5--5-5--5-5-5-5-4-7-4-5|
|-0--0-0--0-0-0-----------------------------3-2-5-2-3|

|-------------------------------------------------------|
|-------------------------------------------------------|
|---------------5--5-5--5-5-5-7--7-7--7-7-7-------------|
|-2--2-2--2-2-2-5--5-5--5-5-5-7--7-7--7-7-7-5-5-4-5-4---|
|-2--2-2--2-2-2-3--3-3--3-3-3-5--5-5--5-5-5-5-5-4-5-4---|
|-0--0-0--0-0-0-----------------------------3-3-2-3-2p0-|

chorus
|---------------------------------|x3
|---------------------------------|
|-5-5-5-5-7-7-7-7-9-9-9-9-9-9-9-9-|
|-5-5-5-5-7-7-7-7-9-9-9-9-9-9-9-9-|
|-3-3-3-3-5-5-5-5-7-7-7-7-7-7-7-7-|
|---------------------------------|

|---------------------------------------------------|
|---------------------------------------------------|
|-5-5-5-5-5-5-5-5-7-7-7-7-7-7-7-7-7-7-7-7-7-7-7-7-7-|
|-5-5-5-5-5-5-5-5-7-7-7-7-7-7-7-7-7-7-7-7-7-7-7-7-7-|
|-3-3-3-3-3-3-3-3-5-5-5-5-5-5-5-5-5-5-5-5-5-5-5-5-5-|
|-------------------.-.-.-.-.-.-.-.-----------------|

pre-chorus-distorted
|----------------------------------------------------|
|----------------------------------------------------|
|---------------5--5-5--5-5-5-7--7-7--7-7-7----------|
|-2--2-2--2-2-2-5--5-5--5-5-5-7--7-7--7-7-7-5-4-7-4-5|
|-2--2-2--2-2-2-3--3-3--3-3-3-5--5-5--5-5-5-5-4-7-4-5|
|-0--0-0--0-0-0-----------------------------3-2-5-2-3|

|-------------------------------------------------------|
|-------------------------------------------------------|
|---------------5--5-5--5-5-5-7--7-7--7-7-7-------------|
|-2--2-2--2-2-2-5--5-5--5-5-5-7--7-7--7-7-7-5-5-4-5-4---|
|-2--2-2--2-2-2-3--3-3--3-3-3-5--5-5--5-5-5-5-5-4-5-4---|
|-0--0-0--0-0-0-----------------------------3-3-2-3-2p0-|

chorus
|---------------------------------|x3
|---------------------------------|
|-5-5-5-5-7-7-7-7-9-9-9-9-9-9-9-9-|
|-5-5-5-5-7-7-7-7-9-9-9-9-9-9-9-9-|
|-3-3-3-3-5-5-5-5-7-7-7-7-7-7-7-7-|
|---------------------------------|

|---------------------------------------------------|
|---------------------------------------------------|
|-5-5-5-5-5-5-5-5-7-7-7-7-7-7-7-7-7-7-7-7-7-7-7-7-7-|
|-5-5-5-5-5-5-5-5-7-7-7-7-7-7-7-7-7-7-7-7-7-7-7-7-7-|
|-3-3-3-3-3-3-3-3-5-5-5-5-5-5-5-5-5-5-5-5-5-5-5-5-5-|
|-------------------.-.-.-.-.-.-.-.-----------------|

bridge
|------------------------------------------------|
|------------------------------------------------|
|-------------4--4--4--4--5--5--7--7--5--5--5-xx-|
|-2--2--2--2--4--4--4--4--5--5--7--7--5--5--5-xx-|
|-2--2--2--2--2--2--2--2--3--3--5--5--3--3--3-xx-|
|-0--0--0--0-------------------------------------|

|------------------------------------------------|
|------------------------------------------------|
|-------------4--4--4--4------9---7--------------|
|-2--2--2--2--4--4--4--4--2---9---7--------------|
|-2--2--2--2--2--2--2--2--2---7---5--------------|
|-0--0--0--0--------------0----------------------|

intro-slightly distroted-listen for
timing
|-------------|x2
|-------------|
|-9----5----7-|
|-9----5----7-|
|-7----3----5-|
|-------------|

|------------------|
|------------------|
|-5----7----9----7-|
|-5----7----9----7-|
|-3----5----7----5-|
|------------------|

|----------------------------------------|
|----------------------------------------|
|-5----7-----------------7-7-7-7-7-7-7-7-|
|-5----7-2-2-2-2-2-2-2-2-7-7-7-7-7-7-7-7-|
|-3----5-2-2-2-2-2-2-2-2-5-5-5-5-5-5-5-5-|
|--------0-0-0-0-0-0-0-0-----------------|
         . . . . . . . . . . . . . . . .

chorus
|---------------------------------|x3
|---------------------------------|
|-5-5-5-5-7-7-7-7-9-9-9-9-9-9-9-9-|
|-5-5-5-5-7-7-7-7-9-9-9-9-9-9-9-9-|
|-3-3-3-3-5-5-5-5-7-7-7-7-7-7-7-7-|
|---------------------------------|

|---------------------------------------------------|
|---------------------------------------------------|
|-5-5-5-5-5-5-5-5-7-7-7-7-7-7-7-7-7-7-7-7-7-7-7-7-7-|
|-5-5-5-5-5-5-5-5-7-7-7-7-7-7-7-7-7-7-7-7-7-7-7-7-7-|
|-3-3-3-3-3-3-3-3-5-5-5-5-5-5-5-5-5-5-5-5-5-5-5-5-5-|
|-------------------.-.-.-.-.-.-.-.-----------------|

outro-distorted
|----------------------------------------------------|
|----------------------------------------------------|
|---------------5--5-5--5-5-5-7--7-7--7-7-7----------|
|-2--2-2--2-2-2-5--5-5--5-5-5-7--7-7--7-7-7-5-4-7-4-5|
|-2--2-2--2-2-2-3--3-3--3-3-3-5--5-5--5-5-5-5-4-7-4-5|
|-0--0-0--0-0-0-----------------------------3-2-5-2-3|

===========================================================================

GUITAR 3

Im sure that there is more but for now
this is what i have. this also has a wierd
effect that makes it play faster near the end.

intro-gradually get really fast
(yes in the back of the boolet it says
Shane (lead singer) plays a third
guitar in this song.)
|----------[---------------------------------------------|
|-(15)-----[-(12)--------(12)--------(8)-------(8)-------|
|---(14)---[----(12)--------(12)-------(11)------(11)----|
|-----(12)-[-------(12)--------(12)-------(12)------(12--|
|----------[---------------------------------------------|
|----------[---------------------------------------------|

---------------------------------------------|xas many needed
-(15)-------(15)-------(15)-------(15)-------|
----(14)-------(14)-------(14)-------(14)----|
-------(12)-------(12)-------(12)-------(12)-|
---------------------------------------------|
---------------------------------------------|

----------------------------------------------------------------------------
                          Always And Never
----------------------------------------------------------------------------
Tuning: drop d

GUITAR 1
|------------------------|
|------------------------|
|1111-11-11-1111-11-9-11-|
|-x-x--x--x--x-x--x-x--x-|
|-9-9--9--9--9-9--9-7--9-|
|------------------------|

|--------------------------|
|--------------------------|
|1111-11-11-1111-11--14-11-|
|-x-x--x--x--x-x--x---x--x-|
|-9-9--9--9--9-9--9--12--9-|
|--------------------------|

|--------------------------|
|--------------------------|
|-1414-14-14-1414-14-16-14-|
|--x-x--x--x--x-x--x--x--x-|
|-1212-12-12-1212-12-14-12-|
|--------------------------|

|------------------------|
|------------------------|
|-1414-14-14-1414-14-911-|
|--x-x--x--x--x-x--x-x-x-|
|-1212-12-12-1212-12-7-9-|
|------------------------|

|------------------------|
|------------------------|
|1111-11-11-1111-11-9-11-|
|-x-x--x--x--x-x--x-x--x-|
|-9-9--9--9--9-9--9-7--9-|
|------------------------|

|--------------------------|
|--------------------------|
|1111-11-11-1111-11--14-11-|
|-x-x--x--x--x-x--x---x--x-|
|-9-9--9--9--9-9--9--12--9-|
|--------------------------|

|--------------------------|
|--------------------------|
|-1414-14-14-1414-14-16-14-|
|--x-x--x--x--x-x--x--x--x-|
|-1212-12-12-1212-12-14-12-|
|--------------------------|

|------------------------|
|------------------------|
|-1414-14-14-14\9--------|
|--x-x--x--x--x\x--------|
|-1212-12-12-12\7--------|
|------------------------|

|---------------------------------|
|---------------------------------|
|---------------------------------|
|-4-4-4-4-4-4-4-4-4-4-4-4-4-4-4-4-|
|-4-4-4-4-4-4-4-4-4-4-4-4-4-4-4-4-|
|-4-4-4-4-4-4-4-4-4-4-4-4-4-4-4-4-|

|--------------------------------------------------------------------------|
|--------------------------------------------------------------------------|
|-------------------------------------6-6-77-66-6-77-66-6-77-66-6-77-6-----|
|-----4-2-0------------4-2-0----------4-4-44-44-4-44-44-4-44-44-4-44-4-----|
|--4h5------4-5-4h5-4h5-------4-5-4h5-4-4-44-44-4-44-44-4-44-44-4-44-4-----|
|-0----------------0------------------4-4-44-44-4-44-44-4-44-44-4-44-4-----|

|------------------------------------------------------------|
|--------7-------------7-------------------------------------|
|-7-77-7-x-66-7-7-77-7-x-66-6-6-77-66-6-77-66-6-77-66-6-77-6-|
|-x-xx-x-4-xx-x-x-xx-x-4-xx-4-4-44-44-4-44-44-4-44-44-4-44-4-|
|-5-55-5---44-5-5-55-5---44-4-4-44-44-4-44-44-4-44-44-4-44-4-|
|0--------------------------4-4-44-44-4-44-44-4-44-44-4-44-4-|

|--------------------------------------------------------------------------|
|--------------------------------------------------------------------------|
|-------------------------------------6-6-77-66-6-77-66-6-77-66-6-77-6-----|
|-----4-2-0------------4-2-0----------4-4-44-44-4-44-44-4-44-44-4-44-4-----|
|--4h5------4-5-4h5-4h5-------4-5-4h5-4-4-44-44-4-44-44-4-44-44-4-44-4-----|
|-0----------------0------------------4-4-44-44-4-44-44-4-44-44-4-44-4-----|

|---------------------------|
|--------7-------------7----|
|-7-77-7-x-66-7-7-77-7-x-66-|
|-x-xx-x-4-xx-x-x-xx-x-4-xx-|
|-5-55-5---44-5-5-55-5---44-|
|---------------------------|

pre-chorus
|-----------------------------------------------------------|
|--------------------------------------------------e--------|
|-44444444--------11\711\7-11119-11\711\7-11119---d---------|
|-4444444400000000-x\x-x\x--x-xx--x\x-x\x--x-xx--i----------|
|-2222222200000000-9\5-9\5--9-97--9\5-9\5--9-97-l-----------|
|---------00000000-----------------------------s------------|

chorus
|--------------------------------------------------------------------------|
|--------------------------------------------------------------------------|
|-4-4-4-4-4-4-4-4----------------------------------------------------------|
|-4-4-4-4-4-4-4-4-0-0-0-0-0-0-0-0-5-5-5-5-5-5-5-5-5-5-5-5-4-4-4-4----------|
|-2-2-2-2-2-2-2-2-0-0-0-0-0-0-0-0-5-5-5-5-5-5-5-5-5-5-5-5-4-4-4-4----------|
|-----------------0-0-0-0-0-0-0-0-5-5-5-5-5-5-5-5-5-5-5-5-4-4-4-4----------|

|--------------------------------------------------------------------------|
|--------------------------------------------------------------------------|
|-4-4-4-4-4-4-4-4----------------------------------------------------------|
|-4-4-4-4-4-4-4-4-0-0-0-0-0-0-0-0-5-5-5-5-5-5-5-5-5-5-5-5-4-4-4-4----------|
|-2-2-2-2-2-2-2-2-0-0-0-0-0-0-0-0-5-5-5-5-5-5-5-5-5-5-5-5-4-4-4-4----------|
|-----------------0-0-0-0-0-0-0-0-5-5-5-5-5-5-5-5-5-5-5-5-4-4-4-4----------|

verse 2
|--------------------------------------------------------------------------|
|--------------------------------------------------------------------------|
|--------------------------------------------------------------------------|
|-----4-2-------------------4-2---------------4----------------------------|
|--4h5----5-4-4-4-4-4h5--4h5----5-4-4-4-4-4h5-4-55-5-5-44-55-4-4-4h5-4h7---|
|-0---------------------0---------------------4-.------..------------------|

|--------------------------------------------------------------------------|
|---------------7-------------7--------------------------------------------|
|--------7-77-7-x-66-7-7-77-7-x-66-----------------------------------------|
|--4-4\2-x-xx-x-4-xx-x-x-xx-x-4-xx4---------------------------4-4\2--------|
|-4------5-55-5---44-5-5-55-5---444-55-5-5-44-55-4-4-4h5-4h7-4-------------|
|---------------------------------4-.------..------------------------------|

|--------------------------------------------------------------------------|
|--------------------------------------------------------------------------|
|--------------------------------------------------------------------------|
|-----4-2-------------------4-2---------------4----------------------------|
|--4h5----5-4-4-4-4-4h5--4h5----5-4-4-4-4-4h5-4-55-5-5-44-55-4-4-4h5-4h7---|
|-0---------------------0---------------------4-.------..------------------|

|---------------------------------|
|---------------7-------------7---|
|--------7-77-7-x-66-7-7-77-7-x-66|
|--4-4\2-x-xx-x-4-xx-x-x-xx-x-4-xx|
|-4------5-55-5---44-5-5-55-5---44|
|---------------------------------|

pre-chorus
|-----------------------------------------------------------|
|--------------------------------------------------e--------|
|-44444444--------11\711\7-11119-11\711\7-11119---d---------|
|-4444444400000000-x\x-x\x--x-xx--x\x-x\x--x-xx--i----------|
|-2222222200000000-9\5-9\5--9-97--9\5-9\5--9-97-l-----------|
|---------00000000-----------------------------s------------|

chorus
|--------------------------------------------------------------------------|
|--------------------------------------------------------------------------|
|-4-4-4-4-4-4-4-4----------------------------------------------------------|
|-4-4-4-4-4-4-4-4-0-0-0-0-0-0-0-0-5-5-5-5-5-5-5-5-5-5-5-5-4-4-4-4----------|
|-2-2-2-2-2-2-2-2-0-0-0-0-0-0-0-0-5-5-5-5-5-5-5-5-5-5-5-5-4-4-4-4----------|
|-----------------0-0-0-0-0-0-0-0-5-5-5-5-5-5-5-5-5-5-5-5-4-4-4-4----------|

|--------------------------------------------------------------------------|
|--------------------------------------------------------------------------|
|-4-4-4-4-4-4-4-4----------------------------------------------------------|
|-4-4-4-4-4-4-4-4-0-0-0-0-0-0-0-0-5-5-5-5-5-5-5-5-5-5-5-5-4-4-4-4----------|
|-2-2-2-2-2-2-2-2-0-0-0-0-0-0-0-0-5-5-5-5-5-5-5-5-5-5-5-5-4-4-4-4----------|
|-----------------0-0-0-0-0-0-0-0-5-5-5-5-5-5-5-5-5-5-5-5-4-4-4-4----------|

pre-chorus
|-----------------------------------------------------------|
|-----------------------------------------------------------|
|-44444444--------11\711\7-11119-11\711\7-11119-------------|
|-4444444400000000-x\x-x\x--x-xx--x\x-x\x--x-xx-------------|
|-2222222200000000-9\5-9\5--9-97--9\5-9\5--9-97-------------|
|---------00000000------------------------------------------|


bridge
|-----------------------|
|-----------------------|
|--9/119/11----9/119/11-|
|00x/-xx/-x0000x/-xx/-x-|
|007/-97/-900007/-97/-9-|
|00--------0000---------|
 ..        ....
|-----------------------------------------------------------------|
|-----------------------------------------------------------------|
|---9/119/11-----9/119/11----7\67\6----7\67\6----7\67\6----7\67\9-|
|---x/-xx/-x-----x/-xx/-x----x\xx\x----x\xx\x----x\xx\x----x\xx\x-|
|---7/-97/-9-----7/-97/-9----5\45\4----5\45\4----5\45\4----5\45\7-|
|-----------------------------------------------------------------|


|-----------------------|
|-----------------------|
|--9/119/11----9/119/11-|
|--x/-xx/-x----x/-xx/-x-|
|--7/-97/-9----7/-97/-9-|
|-----------------------|

|-----------------------------------------------------------------|
|-----------------------------------------------------------------|
|---9/119/11-----9/119/11----7\67\6----7\67\6----7\67\6----7\67\9-|
|---x/-xx/-x-----x/-xx/-x----x\xx\x----x\xx\x----x\xx\x----x\xx\x-|
|---7/-97/-9-----7/-97/-9----5\45\4----5\45\4----5\45\4----5\45\7-|
|-----------------------------------------------------------------|

|-----------------------|
|-----------------------|
|--9/119/11----9/119/11-|
|--x/-xx/-x----x/-xx/-x-|
|--7/-97/-9----7/-97/-9-|
|-----------------------|

|-----------------------------------------------------------------|
|-----------------------------------------------------------------|
|---9/119/11-----9/119/11----7\67\6----7\67\6----7\67\6----7\67\9-|
|---x/-xx/-x-----x/-xx/-x----x\xx\x----x\xx\x----x\xx\x----x\xx\x-|
|---7/-97/-9-----7/-97/-9----5\45\4----5\45\4----5\45\4----5\45\7-|
|-----------------------------------------------------------------|

|-----------------------|
|-----------------------|
|--9/119/11----9/119/11-|
|--x/-xx/-x----x/-xx/-x-|
|--7/-97/-9----7/-97/-9-|
|-----------------------|

|-----------------------------------------------------------------|
|-----------------------------------------------------------------|
|---9/119/11-----9/119/11----7\67\6----7\67\6----7\67\6----14-----|
|---x/-xx/-x-----x/-xx/-x----x\xx\x----x\xx\x----x\xx\x-----x-----|
|---7/-97/-9-----7/-97/-9----5\45\4----5\45\4----5\45\4----12-----|
|-----------------------------------------------------------------|


chorus
|--------------------------------------------------------------------------|
|--------------------------------------------------------------------------|
|-4-4-4-4-4-4-4-4----------------------------------------------------------|
|-4-4-4-4-4-4-4-4-0-0-0-0-0-0-0-0-5-5-5-5-5-5-5-5-5-5-5-5-4-4-4-4----------|
|-2-2-2-2-2-2-2-2-0-0-0-0-0-0-0-0-5-5-5-5-5-5-5-5-5-5-5-5-4-4-4-4----------|
|-----------------0-0-0-0-0-0-0-0-5-5-5-5-5-5-5-5-5-5-5-5-4-4-4-4----------|

|--------------------------------------------------------------------------|
|--------------------------------------------------------------------------|
|-4-4-4-4-4-4-4-4----------------------------------------------------------|
|-4-4-4-4-4-4-4-4-0-0-0-0-0-0-0-0-5-5-5-5-5-5-5-5-5-5-5-5-4-4-4-4----------|
|-2-2-2-2-2-2-2-2-0-0-0-0-0-0-0-0-5-5-5-5-5-5-5-5-5-5-5-5-4-4-4-4----------|
|-----------------0-0-0-0-0-0-0-0-5-5-5-5-5-5-5-5-5-5-5-5-4-4-4-4----------|


outro
|----------------------------------------------------|
|----------------------------------------------------|
|----------------------------------------------------|
|-0-44--0-444-0-44-0-444-----------------------------|
|-0-44--0-444-0-44-0-444-----------------------------|
|-0-44--0-444-0-44-0-444-----------------------------|
==================================================================
GUITAR 2
intro
|--------------------------------------------------|
|--------------------------------------------------|
|-4-4--4--4--4-4--4--6--7--4-4--4--4--4-4--4--7--6-|
|-x-x--x--x--x-x--x--x--x--x-x--x--x--x-x--x--x--x-|
|-2-2--2--2--2-2--2--4--5--2-2--2--2--2-2--2--5--4-|
|--------------------------------------------------|

|--------------------------------------------------|
|--------------------------------------------------|
|-7-7--7--7--7-7--7-11--7--7-7--7--7--7-7--7-11--7-|
|-x-x--x--x--x-x--x--x--x--x-x--x--x--x-x--x--x--x-|
|-5-5--5--5--5-5--5--9--5--5-5--5--5--5-5--5--9--5-|
|--------------------------------------------------|

|--------------------------------------------------|
|--------------------------------------------------|
|-4-4--4--4--4-4--4--6--7--4-4--4--4--4-4--4--7--6-|
|-x-x--x--x--x-x--x--x--x--x-x--x--x--x-x--x--x--x-|
|-2-2--2--2--2-2--2--4--5--2-2--2--2--2-2--2--5--4-|
|--------------------------------------------------|

|--------------------------------------------------|
|--------------------------------------------------|
|-7-7--7--7--7-7--7-11--7--7-7--7--7-11\6-6--------|
|-x-x--x--x--x-x--x--x--x--x-x--x--x--x\x-x--------|
|-5-5--5--5--5-5--5--9--5--5-5--5--5--9\4-4--------|
|--------------------------------------------------|

|---------------------------------|
|---------------------------------|
|---------------------------------|
|-4-4-4-4-4-4-4-4-4-4-4-4-4-4-4-4-|
|-4-4-4-4-4-4-4-4-4-4-4-4-4-4-4-4-|
|-4-4-4-4-4-4-4-4-4-4-4-4-4-4-4-4-|

verse 1
|--------------------------------------------------------------------------|
|--------------------------------------------------------------------------|
|--------------------------------------------------------------------------|
|-----4-2-0------------4-2-0----------4-4-44-44-4-44-44-4-44-44-4-44-4-----|
|--4h5------4-5-4h5-4h5-------4-5-4h5-4-4-55-44-4-55-44-4-55-44-4-55-4-----|
|-0----------------0------------------4-4-44-44-4-44-44-4-44-44-4-44-4-----|

|------------------------------------------------------------|
|--------7-------------7-------------------------------------|
|-7-77-7-x-66-7-7-77-7-x-66----------------------------------|
|-x-xx-x-4-xx-x-x-xx-x-4-xx-4-4-44-44-4-44-44-4-44-44-4-44-4-|
|-5-55-5---44-5-5-55-5---44-4-4-55-44-4-55-44-4-55-44-4-55-4-|
|---------------------------4-4-44-44-4-44-44-4-44-44-4-44-4-|

|--------------------------------------------------------------------------|
|--------------------------------------------------------------------------|
|--------------------------------------------------------------------------|
|-----4-2-0------------4-2-0----------4-4-44-44-4-44-44-4-44-44-4-44-4-----|
|--4h5------4-5-4h5-4h5-------4-5-4h5-4-4-55-44-4-55-44-4-55-44-4-55-4-----|
|-0----------------0------------------4-4-44-44-4-44-44-4-44-44-4-44-4-----|

|---------------------------|
|--------7-------------7----|
|-7-77-7-x-66-7-7-77-7-x-66-|
|-x-xx-x-4-xx-x-x-xx-x-4-xx-|
|-5-55-5---44-5-5-55-5---44-|
|---------------------------|

pre-chorus
|--------------------------------------------------------------------------|
|-----------------------------------------------------------------e--------|
|-7-7-7-7-7-7-7-7-7-7-7-7-9\79\7-7\4-7\4-7-7-6--7\4-7\4-7-7-6----d---------|
|-x-x-x-x-x-x-x-x-x-x-x-x-x\xx\x-x\x-x\x-x-x-x--x\x-x\x-x-x-x---i----------|
|-5-5-5-5-5-5-5-5-5-5-5-5-7\57\5-5\2-5\2-5-5-4--5\2-5\2-5-5-4--l-----------|
|-------------------------------------------------------------s------------|

chorus
|--------------------------------------------------------------------------|
|--------------------------------------------------------------------------|
|11111111111111111111111111111111-7-7-7-7-7-7-7-7-6-6-6-6-6-6-6-6----------|
|-x-x-x-x-x-x-x-x-x-x-x-x-x-x-x-x-x-x-x-x-x-x-x-x-x-x-x-x-x-x-x-x----------|
|-9-9-9-9-9-9-9-9-9-9-9-9-9-9-9-9-5-5-5-5-5-5-5-5-4-4-4-4-4-4-4-4----------|
|--------------------------------------------------------------------------|

|--------------------------------------------------------------------------|
|--------------------------------------------------------------------------|
|11111111111111111111111111111111-7-7-7-7-7-7-7-7-9-9-9-9-9-9-9-9----------|
|-x-x-x-x-x-x-x-x-x-x-x-x-x-x-x-x-x-x-x-x-x-x-x-x-x-x-x-x-x-x-x-x----------|
|-9-9-9-9-9-9-9-9-9-9-9-9-9-9-9-9-5-5-5-5-5-5-5-5-7-7-7-7-7-7-7-7----------|
|--------------------------------------------------------------------------|

verse 2
|--------------------------------------------------------------------------|
|--------------------------------------------------------------------------|
|--------------------------------------------------------------------------|
|-----4-2-------------------4-2---------------4----------------------------|
|--4h5----5-4-4-4-4-4h5--4h5----5-4-4-4-4-4h5-4-55-5-5-44-55-4-4-4h5-4h7---|
|-0---------------------0---------------------4-.------..------------------|

|--------------------------------------------------------------------------|
|---------------7-------------7--------------------------------------------|
|--------7-77-7-x-66-7-7-77-7-x-66-----------------------------------------|
|--4-4\2-x-xx-x-4-xx-x-x-xx-x-4-xx4---------------------------4-4\2--------|
|-4------5-55-5---44-5-5-55-5---444-55-5-5-44-55-4-4-4h5-4h7-4-------------|
|---------------------------------4-.------..------------------------------|

|--------------------------------------------------------------------------|
|--------------------------------------------------------------------------|
|--------------------------------------------------------------------------|
|-----4-2-------------------4-2---------------4----------------------------|
|--4h5----5-4-4-4-4-4h5--4h5----5-4-4-4-4-4h5-4-55-5-5-44-55-4-4-4h5-4h7---|
|-0---------------------0---------------------4-.------..------------------|

|---------------------------------|
|---------------7-------------7---|
|--------7-77-7-x-66-7-7-77-7-x-66|
|--4-4\2-x-xx-x-4-xx-x-x-xx-x-4-xx|
|-4------5-55-5---44-5-5-55-5---44|
|---------------------------------|

pre-chorus
|--------------------------------------------------------------------------|
|-----------------------------------------------------------------e--------|
|-7-7-7-7-7-7-7-7-7-7-7-7-9\79\7-7\4-7\4-7-7-6--7\4-7\4-7-7-6----d---------|
|-x-x-x-x-x-x-x-x-x-x-x-x-x\xx\x-x\x-x\x-x-x-x--x\x-x\x-x-x-x---i----------|
|-5-5-5-5-5-5-5-5-5-5-5-5-7\57\5-5\2-5\2-5-5-4--5\2-5\2-5-5-4--l-----------|
|-------------------------------------------------------------s------------|

chorus
|--------------------------------------------------------------------------|
|--------------------------------------------------------------------------|
|11111111111111111111111111111111-7-7-7-7-7-7-7-7-6-6-6-6-6-6-6-6----------|
|-x-x-x-x-x-x-x-x-x-x-x-x-x-x-x-x-x-x-x-x-x-x-x-x-x-x-x-x-x-x-x-x----------|
|-9-9-9-9-9-9-9-9-9-9-9-9-9-9-9-9-5-5-5-5-5-5-5-5-4-4-4-4-4-4-4-4----------|
|--------------------------------------------------------------------------|

|--------------------------------------------------------------------------|
|--------------------------------------------------------------------------|
|11111111111111111111111111111111-7-7-7-7-7-7-7-7-9-9-9-9-9-9-9-9----------|
|-x-x-x-x-x-x-x-x-x-x-x-x-x-x-x-x-x-x-x-x-x-x-x-x-x-x-x-x-x-x-x-x----------|
|-9-9-9-9-9-9-9-9-9-9-9-9-9-9-9-9-5-5-5-5-5-5-5-5-7-7-7-7-7-7-7-7----------|
|--------------------------------------------------------------------------|

pre-chorus
|--------------------------------------------------------------------------|
|--------------------------------------------------------------------------|
|-7-7-7-7-7-7-7-7-7-7-7-7-9\79\7-7\4-7\4-7-7-6--7\4-7\4-7-7-6--------------|
|-x-x-x-x-x-x-x-x-x-x-x-x-x\xx\x-x\x-x\x-x-x-x--x\x-x\x-x-x-x--------------|
|-5-5-5-5-5-5-5-5-5-5-5-5-7\57\5-5\2-5\2-5-5-4--5\2-5\2-5-5-4--------------|
|--------------------------------------------------------------------------|

bridge-wait a little while
|---------------------------------------------|
|---------------------------------------------|
|---6/76/7----6/76/7----11\911\9----11\911\9--|
|-00x/xx/x0000x/xx/x0099-x\x-x\x9999-x\x-x\x--|
|-004/54/500004/54/50099-9\7-9\79999-9\7-9\7--|
|-00------0000------0099--------9999----------|
  ..      ....      ....        ....

|---------------------------------------------|
|---------------------------------------------|
|-----11\911\9----11\911/12-------------------|
|-9955-x\x-x\x5544-x\x-x/-x-------------------|
|-9955-9\7-9\75544-9\7-9/10-------------------|
|-9955--------5544----------------------------|
  ....        ....
|---------------------------------------------|
|---------------------------------------------|
|-----6/76/7----6/76/7----6/76/7----6/76/7----|
|-4400x/xx/x0000x/xx/x0044x/xx/x4422x/xx/x----|
|-44004/54/500004/54/500444/54/544224/54/5----|
|-4400------0000------0044------4422----------|
  ....      ....      ....      ....
|---------------------------------------------------------|
|---------------------------------------------------------|
|-----11\911\9----11\911\9----11\911\9----11\911\9--------|
|-2299-x\x-x\x9999-x\x-x\x9955-x\x-x\x5544-x\x-x\x--------|
|-2299-9\7-9\79999-9\7-9\79955-9\7-9\75544-9\7-9\7--------|
|-2299--------9999--------9955--------5544----------------|
  ....        ....        ....        ....
|---------------------------------------------|
|---------------------------------------------|
|-----6/76/7----6/76/7----6/76/7----6/76/7----|
|-4400x/xx/x0000x/xx/x0044x/xx/x4422x/xx/x----|
|-44004/54/500004/54/500444/54/544224/54/5----|
|-4400------0000------0044------4422----------|
  ....      ....      ....      ....
|---------------------------------------------------------|
|---------------------------------------------------------|
|-----11\911\9----11\911\9----11\911\9----11\911\12-------|
|-2299-x\x-x\x9999-x\x-x\x9955-x\x-x\x5544-x\x-x\-x-------|
|-2299-9\7-9\79999-9\7-9\79955-9\7-9\75544-9\7-9\10-------|
|-2299--------9999--------9955--------5544----------------|
  ....        ....        ....        ....
|---------------------------------------------|
|---------------------------------------------|
|-----6/76/7----6/76/7----6/76/7----6/76/7----|
|-4400x/xx/x0000x/xx/x0044x/xx/x4422x/xx/x----|
|-44004/54/500004/54/500444/54/544224/54/5----|
|-4400------0000------0044------4422----------|
  ....      ....      ....      ....
|----------------------------------------------------|
|----------------------------------------------------|
|-----11\911\9----11\911\9----11\911\9----11\9-12----|
|-2299-x\x-x\x9999-x\x-x\x9955-x\x-x\x5544-x\x--x----|
|-2299-9\7-9\79999-9\7-9\79955-9\7-9\75544-9\7-10----|
|-2299--------9999--------9955--------5544-----------|
  ....        ....        ....        ....

play chous

outro
|----------------------------------------------------|
|----------------------------------------------------|
|----------------------------------------------------|
|-0-44--0-444-0-44-0-444-----------------------------|
|-0-44--0-444-0-44-0-444-----------------------------|
|-0-44--0-444-0-44-0-444-----------------------------|
====================================================================


----------------------------------------------------------------------------
                               Already Dead
----------------------------------------------------------------------------

Gt.1    Verse & intro
E|--------------------------------------------------------------------------|
B|--------------------------------------------------------------------------|
G|--------------------------------------------------------------------------|
D|-------------6---6---7---7---4---4-----6-7---6-7-4p6p4---4----------------|
A|-4-6-7-4-6-7---7---7---6---6---6---6--4-----4-----------7---7-6-4-6-7~----|
D|--------------------------------------------------------------------------|
Gt.2   bridge 1 & Intro
E|----------------------------------------------------------|
B|---2---2-4---2---2-------2---2-4---2----------------------|
G|-4---4-----4---4-------4---4-----4--2p4p2-1---------------|
D|--------------------------------------------4-------------|
A|----------------------------------------------------------|
D|----------------------------------------------------------|

Gt.1 Cont. verse while gt. 2 plays...
verse
E|----------------------------------------------------------|
B|----------------------------------------------------------|
G|----------------------------------------------------------|
D|----------------------------------------------------------|
A|---11-11----7-7----9-9------------------------------------|
D|---11-11----7-7----9-9------------------------------------|

then in scream part gt.1 & gt.2 play bridge, then repeat verse again until Chorus...

Chorus
Gt.1 & 2
E|----------------------------------------------------------|
B|----------------------------------------------------------|
G|------9-----9-----9-----9---------------------------------|
D|-------9-----9-----9-----9--------------------------------|Repeat through
A|---9------7-----9-----7-----------------------------------|    Chorus
D|---9------7-----9-----7-----------------------------------|

Verse

bridge 1

verse

Chorus

Now bridge 2...
Gt.1 plays
E|----------------------------------------------------------|
B|----------------------------------------------------------|
G|----------------------------------------------------------|
D|---7-7-7-7------------------------------------------------|until bridge 1
A|---7-7-7-7------------------------------------------------|is played again
D|---7-7-7-7------------------------------------------------|

while gt.1 plays that gt.2 plays
verse
E|----------------------------------------------------------|
B|----------------------------------------------------------|
G|----------------------------------------------------------|
D|----------------------------------------------------------|
A|---11-11----7-7----9-9------------------------------------|
D|---11-11----7-7----9-9------------------------------------|

Chorus

then outro

E|----------------------------------------------------------|
B|----------------------------------------------------------|
G|----7-------10-------12-----------------------------------|
D|-------(x8)----(x8)-----(x8)------------------------------|
A|----5--------8-------10-----------------------------------|
D|----------------------------------------------------------|

---------------------------------------------------------------------------
                        Three Hours Back
---------------------------------------------------------------------------

Tuning: drop d

Intro

E|-----------------------------------0------0-----------------|
B|-------2--------------2--------3------3------3--------------|
G|-----2-----2------2------2--------2------2------2--6p4---4~-|
D|-2p4---------4--2---2------2--0------------------------7----|
A|------------------------------------------------------------|
D|------------------------------------------------------------|


 |-----------------------------------------------------|
 |-------2--------------2-------0~---------------------|
 |-----2-----2------2------2----2~----2---2---2-----2--|
 |-2p4---------4--2---2------2--1~--1---1---1-----0----|
 |----------------------------------------------2------|
 |-----------------------------------------------------|

   chorus-guitar 1
                                     1st ending
 |---------------------------------|----------------------|
 |-2h3p2-------2h3p2-------2h3p2---|----------------------|
 |-------2-----------2-----------2-|----------------------|
 |---------4-4---------2-2---------|-0-000-2222-4444-6976-|
 |---------------------------------|----------------------|
 |---------------------------------|----------------------|

  4th time ending does this

 |----------------------|
 |----------------------|
 |----------------------|
 |-0-000-2222-4-4444444-|
 |----------------------|
 |----------------------|

  chorus-guitar 2

    first two times
 |---------------------------|
 |---------------------------|
 |---------------------------|
 |-4---2---0-000000000000000-|
 |-4---2---0-000000000000000-|
 |-4---2---0-000000000000000-|

   last two times
 |-------------------------------|
 |-------------------------------|
 |-------------------------------|
 |-4-444-2-222-0-000000000000000-|
 |-4-444-2-222-0-000000000000000-|
 |-4-444-2-222-0-000000000000000-|


    Verse-both guitars

 |----------------------------------------------------------|
 |----------------------------------------------------------|
 |-9-9-99-9-9-99-9-9-99-9-9-99--7-7-77-6-6-66-7-7-77-9-9-99-|
 |-7-7-77-7-7-77-7-7-77-7-7-77--7-7-77-7-7-77-7-7-77-x-x-xx-|
 |-9-9-99-9-9-99-9-9-99-9-9-99--5-5-55-4-4-44-5-5-55-7-7-77-|
 |-----------------------------(0)--------------------------|


 |----------------------------------------------------------|
 |----------------------------------------------------------|
 |-9-9-99-9-9-99-9-9-99-9-9-99--7-7-77-6-6-66-7-7-77-6-6-66-|
 |-7-7-77-7-7-77-7-7-77-7-7-77--7-7-77-7-7-77-7-7-77-7-7-77-|
 |-9-9-99-9-9-99-9-9-99-9-9-99--5-5-55-4-4-44-5-5-55-4-4-44-|
 |-----------------------------(0)--------------------------|


 |--------------------------------------------------------------|
 |-----55-----55-----55-----55----------------------------------|
 |-2x2----2x2----2x2----2x2-----7-77-77-6-66-66-7-77-77-9-99-99-|
 |-4x4----4x4----4x4----4x4-----x-xx-xx-x-xx-xx-x-xx-xx-x-xx-xx-|
 |------------------------------5-55-55-4-44-44-5-55-55-7-77-77-|
 |------------------------------0-00-00-0-00-00-0-00-00-0-00-00-|


 |--------------------------------------------------------------|
 |-----55-----55-----55-----55----------------------------------|
 |-2x2----2x2----2x2----2x2-----7-77-77-6-66-66-7-77-77-6-66-66-|
 |-4x4----4x4----4x4----4x4-----x-xx-xx-x-xx-xx-x-xx-xx-x-xx-xx-|
 |------------------------------5-55-55-4-44-44-5-55-55-4-44-44-|
 |------------------------------0-00-00-0-00-00-0-00-00-0-00-00-|

 -------
 Chorus
 --------

 slow part-goes with base, right before singing
   (let ring)
 |---------------------------------------------------------|
 |---------------------------------------------------------|
 |-9-----9/4-----4/9-----9/11----------------------(slide)-|
 |-x-----x/x-----x/x-----x/x--------(Base part)----2/------|
 |-7-----7/2-----2/7-----7/9-----------------------2/------|
 |-------------------------------------------------2/------|

   Build-up
 |
 | don't have it perfect yet, will post when i got it.
 |
 |
 |
 |


   Break Down-both guitars
 |------------------------------------------------------------------|
 |------------------------------------------------------------------|
 |------------------------------------------------------------------|
 |--4-44-44-4-44-44-4-44-44-4-44-44-7-77-77-7-77-77-7-77-77-7-77-77-|
 |--4-44-44-4-44-44-4-44-44-4-44-44-5-55-55-4-44-44-5-55-55-4-44-44-|
 |--4-44-44-4-44-44-4-44-44-4-44-44---------------------------------|
pm* * ** ** * ** ** * ** ** * ** ** * ** ** * ** ** * ** ** * ** **


 |------------------------------------------------------|
 |------------------------------------------------------|
 |------------------------------------------------------|
 |--202-4-44-44-4-44-44-4-44-44-4-44-44-7-77-77-7-77-77-|
 |--202-4-44-44-4-44-44-4-44-44-4-44-44-5-55-55-4-44-44-|
 |--202-4-44-44-4-44-44-4-44-44-4-44-44-----------------|
pm* *** * ** ** * ** ** * ** ** * ** ** * ** ** * ** **


 |----------------------------|
 |----------------------------|
 |1414-131313-16-16161616-14~-|
 |-x-x--x-x-x--x--x-x-x-x--x--|
 |1212-111111-14-14141414-12~-|
 |----------------------------|

 -------
 Chorus
 ---------

 ending note after last chorus
   let ring
 |-0-----|
 |-3-----|
 |-2-----|
 |-0-----|
 |-0-----|
 |-0-----|


----------------------------------------------------------------------------
                          Call It Karma
----------------------------------------------------------------------------

Intro/Verse
Guitar 1
e|--------------------------------------------------------------------|
B|--------------------------------------------------------------------|
G|-12x-10p9x-9---(16 times)-------------------------------------------|
D|--------------------------------------------------------------------|
A|--------------------------------------------------------------------|
D|--------------------------------------------------------------------|

Guitar 2
e|--------------------------------------------------------------------|
B|--------------------------------------------------------------------|
G|--------------------------------------------------------------------|
D|-3333333333333-777777777777-----------------------------------------|
A|-3333333333333-777777777777—(4 times)-------------------------------|
D|-3333333333333-777777777777-----------------------------------------|
p.m. . . . . . . . . . . . . .

Pre-Chorus
Guitar 1
e|----------------------------------------------------------------------|
B|----------------------------8-8-8-8-8-8--8-8-8-8-8-8--888888888888----|
G|----------------------------121212121212-101010101010-999999999999----|
D|-000000000000--333333333333-------------------------------------------|
A|-000000000000—-333333333333-------------------------------------------|
D|-000000000000--333333333333-------------------------------------------|

Guitar 2
e|--------------------------------------------------------------------|
B|--------------------------------------------------------------------|
G|--------------------------------------------------------------------|
D|-000000000000—-333333333333-777777777777-101010101010101010101010---|
A|-000000000000--333333333333-777777777777-101010101010101010101010---|
D|-000000000000--333333333333-777777777777-101010101010101010101010---|
Chorus (listen for strumming patterns)
Guitar 1 (play 4 times)                        Play on 1st and 3rd time
e|------------------------------------------------------------------|
B|------------------------------------------------------------------|
G|------------------------------------------------------------------|
D|-101010101010101010101010/12\10-141414141414141414141414\12/14----|
A|------------------------------------------------------------------|
D|------------------------------------------------------------------|
 Play 2nd time  Play on the 4th time
e|------------------------------------------------------------------|
B|------------------------------------------------------------------|
G|------------------------------------------------------------------|
D|-17-15-14-17--171717171717171717171717----------------------------|
A|------------------------------------------------------------------|
D|------------------------------------------------------------------|

Guitar 2 (play 4 times)
e|--------------------------------------------------------------------|
B|--------------------------------------------------------------------|
G|--------------------------------------------------------------------|
D|-333333333333-777777777777------------------------------------------|
A|-333333333333-777777777777------------------------------------------|
D|-333333333333-777777777777------------------------------------------|

Solo/Interlude
e|--------------------------------------------------/8-7-8-7-8-7-7-8--|
B|-----5h6p5-5h6p5-------5h6p5-5h6h8-8-6-5-8-6-5-5------6---8---------|
G|---5-------------5---5------------5-----------5-5-------------------|
D|-3-----------------3------------------------------------------------|
A|--------------------------------------------------------------------|
D|--------------------------------------------------------------------|
                              Play this part fast
e|-10-8-7-7-15-13-12-15-13-12-151312-151312-151312-151312-151312--------|
B|-------8--------------------------------------------------------------|
G|----------------------------------------------------------------------|
D|----------------------------------------------------------------------|
A|----------------------------------------------------------------------|
D|----------------------------------------------------------------------|

Bridge (Both Guitars Clean)
Guitar 1 (play 2 times and listen for tempo and when to start)
e|--------------------------------------------------------------------|
B|--------------------------------------------------------------------|
G|--------------------------------------------------------------------|
D|-3-2-0-2-3---3-2-0---0---5-3-2-0-2---5-3-2-0-2----------------------|
A|-------------------3------------------------------------------------|
D|--------------------------------------------------------------------|
Guitar 2
e|--------------------------------------------------------------------|
B|--------------------------------------------------------------------|
G|--------------------------------------------------------------------|
D|--------------------------------------------------------------------|
A|-0000000000000000---------------------------------------------------|
D|------------------5555555555555555-33333333333333333333333333333333-|


Outro
Both guitars are the same but only guitar 1 plays the 8’s on the       e-string
play 1st and 3rd time 2nd,4th,and 5th time
e|---------/88888888------------------------------------------------|
B|------------------------------------------------------------------|
G|------------------------------------------------------------------|
D|-7x-7x-7x----------7777777777777777--5555555555555555-333333333333|
A|-7x-7x-7x----------7777777777777777--5555555555555555-333333333333|
D|-7x-7x-7x----------7777777777777777--5555555555555555-333333333333|

e|--------------------------------------------------------------------|
B|--------------------------------------------------------------------|
G|--------------------------------------------------------------------|
D|-33333333333333333333-----------------------------------------------|
A|-33333333333333333333-----------------------------------------------|
D|-33333333333333333333-----------------------------------------------|
(very last time of outro, 6th time)
e|--------------------------------------------------------/88888888---|
B|--------------------------------------------------------------------|
G|--------------------------------------------------------------------|
D|-7777777777777777-5555555555555555-33333x-3-333-3x-3x-3x---------7~~|
A|-7777777777777777-5555555555555555-33333x-3-333-3x-3x-3x---------7~~|
D|-7777777777777777-5555555555555555-33333x-3-333-3x-3x-3x---------7~~|

Symbols
| /  slide up
| \  slide down
| h  hammer-on
| p  pull-off
| ~  let ring
| x  Mute note

---------------------------------------------------------------------------

So thats it like i said i didnt write this tabs i made this too make it easier for ppl thanks!
comments
We did not receive enough feedback on this tab! Please rate:
print report bad tab
1 2 3 4 5
13 comments total. Showing first comments.
0 reply
fret13 wrote on July 4 2007, 10:37 am

um you didnt even ask permission to use my tab... :( that hurts dude. besides half of these are wrong and you forgot Defend you.

0 reply
liamdaguitarist wrote on July 4 2007, 10:43 am

well i credited you for it anyway so people know you did it man and these tabs cant be wrong if there the highest rated ones

0 reply
fret13 wrote on July 4 2007, 11:45 am

oh i missed ti the first time sorry dude but still most of these are wrong, no offense. but i do get the idea you were just trying to get them allin one place for people and it doesnt matter about rating their still wrong.

I want to post or [tab]
guest
You may want to rate the tab now too:
select rating
Please do not post tabs as comments. Select "correction" instead!