Oops, an error
Loading. Please wait.

Discovering The Waterfront Tab

ver3
ver3

Intro

Album

Whole song

More versions @911Tabs.com
1,794 views 1 this week
16 commentsread comments
1 2 3 4 5
accurate
x 8
Autoscroll
+/-
esc
set tempo
stop
Difficulty
intermediate
WARNING: You are trying to view
                                    content from Ultimate-Guitar.com
                                    in an unauthorized application,
                                    which is prohibited.

                                    Please use an official Ultimate
                                    Guitar Tabs application for iPhone,
                                    iPad or Android to access legitimate
                                    chords, guitar, bass, and drum tabs
                                    from Ultimate-Guitar.com database.

                                    Type "ultimate guitar tabs" in Apple
                                    App Store's or Android Market's
                                    search to find the application.
there havent been any accurate tabs so ill try.

intro- they do have some wierd thing at the beginning and they also play it in concerts
e|-----0---0---0---0----0---0--0-------------------------------------------|
B|----3---3---3---3----3---3---3-------------------------------------------|
G|---0---0---0---0----0---0----0-------------------------------------------|
D|--4---4---4---4----4---4-----4-------------------------------------------|
A|-2---0------------2---0--------------------------------------------------|
E|--------3---3----------------3-------------------------------------------|
the verse is the intro minus the chord at the end and goes on x6 (including the thing
the prechorus) although there might be a bass chage durring the thing before the
(pre-pre-chorus should be same as verse)

pre-chorus no ones got this right listen to the song and it makes sense
e|-------------------------------------------------------------------------|
B|-------------------------------------------------------------------------|
G|-4-4-4-4-4--7-7-7-7-7--9-9-9-9-9--12-12-12-12-12-------------------------|
D|-4-4-4-4-4--7-7-7-7-7--9-9-9-9-9--12-12-12-12-12-------(x2)--------------|
A|-2-2-2-2-2--5-5-5-5-5--7-7-7-7-7--10-10-10-10-10-------------------------|
E|-------------------------------------------------------------------------|

chorus
e|-------------------------------------------------------------------------|
B|-------------------------------------------------------------------------|
G|-4-4-4-4-4-4-7-7-7-7-7-7-9-9-9-9-9-9-------------------------------------|
D|-4-4-4-4-4-4-7-7-7-7-7-7-9-9-9-9-9-9-5-5-5-5-5-5-------(x2)--------------|
A|-2-2-2-2-2-2-5-5-5-5-5-5-7-7-7-7-7-7-5-5-5-5-5-5-------------------------|
E|-------------------------------------3-3-3-3-3-3-------------------------|

verse two-guitar 1-------------------------------------------------------| there are two 
here, guitar 2 plays the verse and pre-pre-chorus again. you kind of need to play with 
song to se where everything goes
e|-12p10----------------12p10--------------------------------------------|
B|------8-10------------------8-10-----------------10-10p12----10-10p12--|
G|-------------9h11-----------------9h11-11h12p11------------------------|
D|-----------------------------------------------------------------------|
A|-----------------------------------------------------------------------|
E|-----------------------------------------------------------------------|

e|-------------------------------------------------------------------------|
B|-------------------------------------------------------------------------|
G|-------------------------------------------------------------------------|
D|-------------------------------------------------------------------------|
A|-------------------------------------------------------------------------|
E|-\0----2-2--3------------------------------------------------------------|

pre-chorus-guitar 1-guitar 2 is the same as before. kind of throw it around there is no 
way to play it as lang as they are these notes. yes it sounds wierd
e|----------------------12--12--12--12-------------------------------------|
B|-12-12-121212-12p13-12--12--12--12---------------------------------------|
G|-------------------------------------------------------------------------|
D|-------------------------------------------------------------------------|
A|-------------------------------------------------------------------------|
E|-------------------------------------------------------------------------|

chorus-guitar2-guitar 1 is the same as before. im pretty sure this is how you play it 
if its not. not exact numer  of strums
e|171717171717171717171717171717171717171717171717171717171717171717171717/|
B|-------------------------------------------------------------------------|
G|-------------------------------------------------------------------------|
D|-------------------------------------------------------------------------|
A|-------------------------------------------------------------------------|
E|-------------------------------------------------------------------------|

bridge-guitar1- im not sure about the top not but it sounds ok
e|-15-14-----1514----------------------------------------------------------|
B|--x--x-15---x-x15--17-17/19----------------------------------------------|
G|-12-11--x--1211-x---x--x/-x----------------------------------------------|
D|-------12------12--14-14/16----------------------------------------------|
A|-------------------------------------------------------------------------|
E|-------------------------------------------------------------------------|

bridge-giutar 2
e|-------------------------------------------------------------------------|
B|-------------------------------------------------------------------------|
G|-------------2-2-2-2-2-2-4-4-4-4-4-4-7-7-7-7-7-7-------(x4)--------------|
D|-5-5-5-5-5-5-2-2-2-2-2-2-4-4-4-4-4-4-7-7-7-7-7-7-------------------------|
A|-5-5-5-5-5-5-0-0-0-0-0-0-2-2-2-2-2-2-5-5-5-5-5-5-------------------------|
E|-3-3-3-3-3-3-------------------------------------------------------------|

breakdown(i think)-guitar 1 you can play it aroun the 8 on the b string but i like it 
way. he also does some different tempo things so listen to the song
e|--------10-10-------------10-10---------10-10-------------10-12----------|
B|-------------------------------------------------------------------------|
G|-12p1111------12p1112p1111-------12p1111------12p1112p1111--------(x4)---|
D|-------------------------------------------------------------------------|
A|-------------------------------------------------------------------------|
E|-------------------------------------------------------------------------|

breakdown-guitar 2- he does something at the beginning and i think this is it comment please
e|-x-----------------------------------------------------------------------|
B|-x------17p19-----15-----------------------------------------------------|
G|-x(x13)--------------14----until end of breakdown------------------------|
D|-x----------------------16-----------------------------------------------|
A|-x-----------------------------------------------------------------------|
E|-x-----------------------------------------------------------------------|

play pre-chorus one more time then the chorus two more tiimes(plus the repeats) and the 
power cord out of guitar one is
|-----|
|-----|
|-12--|
|-12--|
|-10--|
|-----|

 /  slide up         XXX
| \  slide down
| h  hammer-on
| p  pull-off
| ~  vibrato
| +  harmonic
| x  Mute note
16 comments total. Showing first comments.
-1 reply
NirvanaFan101 wrote on July 1 2006, 12:07 pm

No the intro is wrong
it goes like this (got it from another tab)

|-----0---------0-----------0------0--
|----3---------3-----------3------3---
|---0---------0-----------0------0----
|--0---------0-----------0------0-----
|-2---------0-------------------------
|----------------------3------3-------

and do that again but instead of the last part it's:

|-0----
|-3----
|-0----
|-0----
|-0----
|-3----

You'll figure it out...that's the proper way to do it...thanks... good try though I know how hard it is to tab songs.

+1 reply
scratchboy wrote on July 17 2006, 06:39 pm

that first comment is crap.

0 reply
scratchboy wrote on July 17 2006, 06:42 pm

Hey, this one's better than mine was, and mine was better than the first one tabbed, but yours is way better, you explain everything. don't listen to nirvanafan, your intro is right. I guess the only reason I tabbed my version is that there were just too many additions to the first tab and too many corrections to make to leave in a comment so I made a new tab instead. But way to go on yours, good job.

I want to post or [tab]
guest
You may want to rate the tab now too:
select rating
Please do not post tabs as comments. Select "correction" instead!