Oops, an error
Loading. Please wait.

Discovering The Waterfront Tab

ver4
ver4

Intro

Album

Whole song

Interactive

More versions @911Tabs.com
889 views 1 this week
2 commentsread comments
1 2 3 4 5
accurate
x 3
Autoscroll
+/-
esc
set tempo
stop
Contributor
Difficulty
novice
WARNING: You are trying to view
                                    content from Ultimate-Guitar.com
                                    in an unauthorized application,
                                    which is prohibited.

                                    Please use an official Ultimate
                                    Guitar Tabs application for iPhone,
                                    iPad or Android to access legitimate
                                    chords, guitar, bass, and drum tabs
                                    from Ultimate-Guitar.com database.

                                    Type "ultimate guitar tabs" in Apple
                                    App Store's or Android Market's
                                    search to find the application.
Song Title: Discovering The Waterfront
Artist:Silverstein
Album:Discovering The Waterfront
Label:Victory Records

Satndard Tuning:EADGBE

pick this as the intro.

|----------0~---------0~----------0~------------0~-|
|-------3~---------3~-----------3~------------3~---|
|-----0~---------0~-----------0~------------0~-----|
|---4~---------4~-----------4~-----------4~--------|
|-2~---------0~------------------------------------|
|------------------------3~-----------3~-----------|


continued from above
|----------0~---------0~------|
|-------3~---------3~---------|
|-----0~---------0~-----------|
|---4~---------4~-------------|
|-2~---------0~------------5~-|
|--------------------------3~-|


second half of verse
1st guitar
|----------0~---------0~-----------0~-----------0~-|
|--------3~---------3~-----------3~----------3~----|
|------0~---------0~-----------0~----------0~------|
|----4~---------4~-----------4~----------4~--------|
|--------------------------------------------------|
|-0~---------0~-----------0~----------0~-----------|


1st guitar continued
|----------0~---------0~----------0~------------0~-|
|-------3~---------3~-----------3~------------3~---|
|-----0~---------0~-----------0~------------0~-----|
|---4~---------4~-----------4~-----------4~--------|
|--------------------------------------------------|
|-3~--------3~-----------3~-----------3~-----------|


2nd guitar second half of 1st verse
you really gotta listen closely to the song for the timing
|-----------|
|-----------|
|-----------|
|-----------|
|-----------|
|-0~---2-3~-|


Pre-chorus:first guitar
once again:(listen closely for the timing for this whole part)
|-----------------------------|
|-----------------------------|
|-44444--77777--99999---------|
|-44444--77777--99999--55555--|
|-22222--55555--77777--55555--|
|----------------------33333--|


pre-chorus:second guitar
|------------------------------------------|
|------------------------------------------|
|-444444-777777-111111111111-141414141414--|
|-444444-xxxxxx-x-x-x-x-x-x--x-x-x-x-x-x---|
|-222222-555555-9-9-9-9-9-9--121212121212--|
|------------------------------------------|

Chorus:first guitar
strum in full
|------------------------------|
|------------------------------|
|-444444-777777-999999---------|
|-444444-777777-999999-555555--|
|-222222-555555-777777-555555--|
|----------------------333333--|


Chorus:second guitar continued
the second guitar transitions into the 2nd verse so listen up.
|----------------------------------|
|----------------------------------|
|-444444777777999999--14b16--------|
|-444444xxxxxxxxxxxx--------12-14~-|
|-222222555555777777---------------|
|----------------------------------|


then 1st and 2nd half of verse all over again
for 2nd verse and play this for 2nd guitar
(im not too sure about this part, but im open to any improvements anyone might have.)
|-----------------------------------------------------------------|
|-----------------------------------------------------------------|
|-14b16---------------14b16-----------11h12-11--------------------|
|-------12-14~--7-7h9-------12-14--12~--------12-7-7h9--7-7h9-----|
|-------------------------------------------------------------10\-|
|-----------------------------------------------------------------|


lead guitar plays this for the 2nd chorus
this isn't the exact way to play it though,
but the notes sound pretty right.

|-1414141414141414-15\1717171717-|
|-1212121212121212---------------|
|--------------------------------|
|--------------------------------|
|--------------------------------|
|--------------------------------|


play the second half of the verse from above and the chorus
then go on to the bridge.

this is the bridge for both guitars
And it's also the part you gotta pay the most attention to.
i cant's stress enough how much ear this song needs to get it right.
first guitar 4x's

|-----------------------------------------------------|
|-----------------------------------------------------|
|----------------------------------------777777777777-|
|-555555555555-777777777777-999999999999-777777777777-|
|-555555555555-777777777777-999999999999-555555555555-|
|-333333333333-555555555555-777777777777--------------|


second guitar 4x's
|-------------------------------------------|
|-------------------------------------------|
|-------------------12-11-7-4~-777777777777-|
|-555555555555777777x--x--x-x--xxxxxxxxxxxx-|
|-55555555555577777710-10-5-2~-555555555555-|
|-333333333333555555------------------------|


slow pretty part after the bridge.
repeat this and below as needed
roughly about 4x's
i really struggled with this part.i know its not perfect but i tried.

|----------10-10--------------------10-10----------|
|--------------------------------------------------|
|-11h12-12-------12\11-11--11h12-12-------12\11-11-|
|--------------------------------------------------|
|--------------------------------------------------|
|--------------------------------------------------|


|----------12---------------------10---12h14-14~---|
|--------------------------------------------------|
|-11h12-12------12\11-11--11h12-12---12------------|
|--------------------------------------------------|
|--------------------------------------------------|
|--------------------------------------------------|


but this comes in a bit after the picking part as seen above
play about 6x or 8 times all around
|----------------------------------------|
|----------------------------------------|
|----12-------11-------12-------11-------|
|-12----12-12----12-12----12-12----12-12-|
|----------------------------------------|
|----------------------------------------|


all come together right here then the chorus. pre-chorus first.
first guitar
|-----------------------------|
|-----------------------------|
|-44444--77777--99999---------|
|-44444--77777--99999--55555--|
|-22222--55555--77777--55555--|
|----------------------33333--|


second guitar
|------------------------------------------|
|------------------------------------------|
|-444444-777777-111111111111-141414141414--|
|-444444-xxxxxx-x-x-x-x-x-x--x-x-x-x-x-x---|
|-222222-555555-9-9-9-9-9-9--121212121212--|
|------------------------------------------|


Chorus:first guitar
last time
|---------------------------|
|---------------------------|
|-444444777777999999--------|
|-444444777777999999555555--|
|-222222555555777777555555--|
|-------------------333333--|


Chorus:
second guitar
|------------------------------|
|------------------------------|
|-444444-777777-999999---------|
|-444444-xxxxxx-999999-555555--|
|-222222-555555-777777-555555--|
|----------------------333333--|


end on this, let it ring out
|-----|
|-----|
|-----|
|-2~--|
|-2~--|
|-0~--|


There you go.i hope everyone likes this song as much as I do. pretty sure this tab is 
90% correct though,but who cares.i know i got the song down, it's just that im not too 
at tabbing them out onto computors.please enjoi.God Bless.
comments
We did not receive enough feedback on this tab! Please rate:
print report bad tab
1 2 3 4 5
2 comments total.
0 reply
fret13 wrote on July 5 2006, 09:16 am

dude you seem really nice but its off. the intro is wrong the chorus and prechorus are wrong although they sound good or at least desent but at least you can give people an idea on how its played.

0 reply
screamokid wrote on October 5 2006, 07:36 pm

i think its perfect, wow the intro seems better than the other tab that i learned to play because its a little lower and great job on the interlude wow

I want to post or [tab]
guest
You may want to rate the tab now too:
select rating
Please do not post tabs as comments. Select "correction" instead!