Oops, an error
Loading. Please wait.

Fist Wrapped In Blood Tab

ver1
ver1

Whole song

Interactive

More versions @911Tabs.com
1,792 views 1 this week
2 commentsread comments
1 2 3 4 5
accurate
x 5
Autoscroll
+/-
esc
set tempo
stop
Contributor
Difficulty
intermediate
WARNING: You are trying to view
                                    content from Ultimate-Guitar.com
                                    in an unauthorized application,
                                    which is prohibited.

                                    Please use an official Ultimate
                                    Guitar Tabs application for iPhone,
                                    iPad or Android to access legitimate
                                    chords, guitar, bass, and drum tabs
                                    from Ultimate-Guitar.com database.

                                    Type "ultimate guitar tabs" in Apple
                                    App Store's or Android Market's
                                    search to find the application.
#----------------------------------PLEASE NOTE---------------------------------#
#This file is the author's own work and represents their interpretation of the #
#song. You may only use this file for private study, scholarship, or research. #
#------------------------------------------------------------------------------##

                              FIST WRAPPED IN BLOOD
                           As recorded by Silverstein
                (From the 2005 Album DISCOVERING THE WATERFRONT)

Words and Music by Silverstein
Arranged by Silverstein
Transcribed by Jonathan Rose

Gtr I (D A D G B E) - 'Left Gtr.'
Gtr II (D A D G B E) - 'Right Gtr.'
Gtr III (D A D G B E) - 'Gtr. III'

 Intro
  Dancefight Q=198
  D5
 4/4
  Gtr I
        PM  PM  PM      PM  PM  PM              PM  PM  PM      PM  PM  PM
  E E E E E E E E    E  E E E E E E E    E  E E E E E E E    E  E E E E E E E
|-------------5---|--6----5-----------|---------------5---|--6----5-----------|
|-----5---6-------|-----------6---5-6-|-------5---6-------|-----------6---5-6-|
|-7-7-------------|-------------------|--7--7-------------|-------------------|
|-------7---7---7-|-----7---7---7-----|---------7---7---7-|-----7---7---7-----|
|-----------------|-------------------|-------------------|-------------------|
|-----------------|-------------------|-------------------|-------------------|
|
| Gtr II
| W                 +W                  +W                  +W
|-----------------|-------------------|-------------------|-------------------|
|-----------------|-------------------|-------------------|-------------------|
|-----------------|-------------------|-------------------|-------------------|
|-0---------------|-(0)---------------|-(0)---------------|-(0)---------------|
|-0---------------|-(0)---------------|-(0)---------------|-(0)---------------|
|-0---------------|-(0)---------------|-(0)---------------|-(0)---------------|


  Bb5                                   C5                          D5
        PM  PM  PM      PM  PM  PM                                  PM
  E E E E E E E E    E  E E E E E E E    E E E E E E E E    q  H    E E
|-------------5---|--6----5-----------|------------------|--------------||
|-----5---6-------|-----------6---5-6-|--8-8-6-6-5-5-6-6-|--8-----------||
|-7-7-------------|-------------------|------------------|--------------||
|-------7---7---7-|-----7---7---7-----|------------------|------------0-||
|-----------------|-------------------|------------------|----------0-0-||
|-----------------|-------------------|------------------|----------0-0-||
|
|                                                                   PM
| W                 +W                   W                  q  H    E E
|-----------------|-------------------|------------------|--------------||
|-----------------|-------------------|------------------|--------------||
|-----------------|-------------------|------------------|--------------||
|-8---------------|-(8)---------------|-10---------------|-10---------0-||
|-8---------------|-(8)---------------|-10---------------|-10-------0-0-||
|-8---------------|-(8)---------------|-10---------------|-10-------0-0-||


   "Come on!"
    D5    N.C.      Bb5       N.C.      F/A
        PM                  PM
    +E  E  q   E q  E   +E  E  q   E q  E
||--------------------|-------------------|
||o-------------------|-------------------|
||--------10--10-9----|-------10--10-9----|
||--(0)----x---x-x--8-|-(8)----x---x-x--7-|
||o-(0)-0--8---8-7--8-|-(8)-8--8---8-7--8-|
||--(0)-0-----------8-|-(8)-8-----------7-|
|
|       PM                  PM
|   +E  E  q   E q  E   +E  E  q   E q  E
||--------------------|-------------------|
||o-------------------|-------------------|
||--------10--10-9----|-------10--10-9----|
||--(0)----x---x-x--8-|-(8)----x---x-x--7-|
||o-(0)-0--8---8-7--8-|-(8)-8--8---8-7--8-|
||--(0)-0-----------8-|-(8)-8-----------7-|


        N.C.                        D5
      PM
  +E  E  q   E q   E   E  q   q  q  E
|--------------------|------------------||
|--------------------|-----------------o||
|-------10--10-9--12-|---10---9--5------||
|-(7)----x---x-x---x-|----x---x--x--0---||
|-(8)-8--8---8-7--10-|----8---7--3--0--o||
|-(7)-7--------------|--------------0---||
|
|     PM
| +E  E  q   E q   E   E  q   q  q  E
|--------------------|------------------||
|--------------------|-----------------o||
|-------10--10-9--12-|---14--12--9------||
|-(7)----x---x-x---x-|----x---x--x--0---||
|-(8)-8--8---8-7--10-|---12--10--7--0--o||
|-(7)-7--------------|--------------0---||


 "Finish me off.."
  D5                          N.C.    Bb5
  Gtrs I, II
  +E  E E E E E E E   E E E E  E E  E E
|-------------------|-------------------|
|-------------------|-------------------|
|-------------------|---------10-9------|
|-(0)-0-0-0-0-0-0-0-|-0-0-0-0------10-8-|
|-(0)-0-0-0-0-0-0-0-|-0-0-0-0---------8-|
|-(0)-0-0-0-0-0-0-0-|-0-0-0-0---------8-|


                              N.C.    A5
  +E  E E E E E E E   E E E E  E E  E E
|-------------------|-------------------|
|-------------------|-------------------|
|-------------------|---------10-9------|
|-(8)-8-8-8-8-8-8-8-|-8-8-8-8------10-7-|
|-(8)-8-8-8-8-8-8-8-|-8-8-8-8---------7-|
|-(8)-8-8-8-8-8-8-8-|-8-8-8-8---------7-|


  A5                          N.C.    G5
  +E  E E E E E E E   E E E E  E E  E E
|-------------------|-------------------|
|-------------------|-------------------|
|-------------------|---------10-9------|
|-(7)-7-7-7-7-7-7-7-|-7-7-7-7------10-5-|
|-(7)-7-7-7-7-7-7-7-|-7-7-7-7---------5-|
|-(7)-7-7-7-7-7-7-7-|-7-7-7-7---------5-|


                  F5              G5  D5
  +E  E E E E E E E   +E  E E E E E E E
|-------------------|-------------------|
|-------------------|-------------------|
|-------------------|-------------------|
|-(5)-5-5-5-5-5-5-3-|-(3)-3-3-3-3-5-5-0-|
|-(5)-5-5-5-5-5-5-3-|-(3)-3-3-3-3-5-5-0-|
|-(5)-5-5-5-5-5-5-3-|-(3)-3-3-3-3-5-5-0-|


  D5                          N.C.    Bb5
  +E  E E E E E E E   E E E E  E E  E E
|-------------------|-------------------|
|-------------------|-------------------|
|-------------------|---------10-9------|
|-(0)-0-0-0-0-0-0-0-|-0-0-0-0------10-8-|
|-(0)-0-0-0-0-0-0-0-|-0-0-0-0---------8-|
|-(0)-0-0-0-0-0-0-0-|-0-0-0-0---------8-|


                              N.C.    A5
  +E  E E E E E E E   E E E E  E E  E E
|-------------------|-------------------|
|-------------------|-------------------|
|-------------------|---------10-9------|
|-(8)-8-8-8-8-8-8-8-|-8-8-8-8------10-7-|
|-(8)-8-8-8-8-8-8-8-|-8-8-8-8---------7-|
|-(8)-8-8-8-8-8-8-8-|-8-8-8-8---------7-|


  A5                          N.C.    C5
  +E  E E E E E E E   E E E E  E E  E  E
|-------------------|--------------------|
|-------------------|--------------------|
|-------------------|---------10-9-------|
|-(7)-7-7-7-7-7-7-7-|-7-7-7-7------10-10-|
|-(7)-7-7-7-7-7-7-7-|-7-7-7-7---------10-|
|-(7)-7-7-7-7-7-7-7-|-7-7-7-7---------10-|


                         A/C#                        F5
   +E   E  E  E  E  E  E  E    +E   E  E  E  E  E  E E
|---------------------------|--------------------------||
|---------------------------|--------------------------||
|---------------------------|--------------------------||
|-(10)-10-10-10-10-10-10-11-|-(11)-11-11-11-11-11-11-3-||
|-(10)-10-10-10-10-10-10-12-|-(12)-12-12-12-12-12-12-3-||
|-(10)-10-10-10-10-10-10-11-|-(11)-11-11-11-11-11-11-3-||


 "Drown your sorrows in.."
  F5                                C
  +E  E E E E E E E   E E E E E E E  E
|-------------------|------------------|
|-------------------|------------------|
|-------------------|------------------|
|-(3)-3-3-3-3-3-3-3-|-3-3-3-3-3-3-3-10-|
|-(3)-3-3-3-3-3-3-3-|-3-3-3-3-3-3-3--7-|
|-(3)-3-3-3-3-3-3-3-|-3-3-3-3-3-3-3-10-|


                                                   D5
   +E   E  E  E  E  E  E  E    E  E  E  E  E  E  E  E
|---------------------------|-------------------------|
|---------------------------|-------------------------|
|---------------------------|-------------------------|
|-(10)-10-10-10-10-10-10-10-|-10-10-10-10-10-10-10-12-|
|--(7)--7--7--7--7--7--7--7-|--7--7--7--7--7--7--7-12-|
|-(10)-10-10-10-10-10-10-10-|-10-10-10-10-10-10-10-12-|


  D5                   C5                        Bb5
   +E   E  E  E  E  q   E    +E   E  E  E  E  q  E
|-------------------------|------------------------|
|-------------------------|------------------------|
|-------------------------|------------------------|
|-(12)-12-12-12-12-12--10-|-(10)-10-10-10-10-10--8-|
|-(12)-12-12-12-12-12--10-|-(10)-10-10-10-10-10--8-|
|-(12)-12-12-12-12-12--10-|-(10)-10-10-10-10-10--8-|


                                    F5
  +E  E E E E E E E   E E E E E E E E
|-------------------|-----------------|
|-------------------|-----------------|
|-------------------|-----------------|
|-(8)-8-8-8-8-8-8-8-|-8-8-8-8-8-8-8-3-|
|-(8)-8-8-8-8-8-8-8-|-8-8-8-8-8-8-8-3-|
|-(8)-8-8-8-8-8-8-8-|-8-8-8-8-8-8-8-3-|


  F5                                C
  +E  E E E E E E E   E E E E E E E  E
|-------------------|------------------|
|-------------------|------------------|
|-------------------|------------------|
|-(3)-3-3-3-3-3-3-3-|-3-3-3-3-3-3-3-10-|
|-(3)-3-3-3-3-3-3-3-|-3-3-3-3-3-3-3--7-|
|-(3)-3-3-3-3-3-3-3-|-3-3-3-3-3-3-3-10-|


                                                   D5
   +E   E  E  E  E  E  E  E    E  E  E  E  E  E  E  E
|---------------------------|-------------------------|
|---------------------------|-------------------------|
|---------------------------|-------------------------|
|-(10)-10-10-10-10-10-10-10-|-10-10-10-10-10-10-10-12-|
|--(7)--7--7--7--7--7--7--7-|--7--7--7--7--7--7--7-12-|
|-(10)-10-10-10-10-10-10-10-|-10-10-10-10-10-10-10-12-|


  D5                   C5                        Bb5
   +E   E  E  E  E  q   E    +E   E  E  E  E  q  E
|-------------------------|------------------------|
|-------------------------|------------------------|
|-------------------------|------------------------|
|-(12)-12-12-12-12-12--10-|-(10)-10-10-10-10-10--8-|
|-(12)-12-12-12-12-12--10-|-(10)-10-10-10-10-10--8-|
|-(12)-12-12-12-12-12--10-|-(10)-10-10-10-10-10--8-|


                                    D5
  +E  E E E E E E E   E E E E E E E E
|-------------------|-----------------||
|-------------------|-----------------||
|-------------------|-----------------||
|-(8)-8-8-8-8-8-8-8-|-8-8-8-8-8-8-8-0-||
|-(8)-8-8-8-8-8-8-8-|-8-8-8-8-8-8-8-0-||
|-(8)-8-8-8-8-8-8-8-|-8-8-8-8-8-8-8-0-||


 "Same!"
  D5    N.C.      Bb5       N.C.      F/A       N.C.                        D5
  Gtr I
      PM                  PM                  PM
  +E  E  q   E q  E   +E  E  q   E q  E   +E  E  q   E q   E   E  q   q  q  E
|-------------------|-------------------|--------------------|----------------|
|-------------------|-------------------|--------------------|----------------|
|-------10--10-9----|-------10--10-9----|-------10--10-9--12-|---10---9--5----|
|-(0)----x---x-x--8-|-(8)----x---x-x--7-|-(7)----x---x-x---x-|----x---x--x--0-|
|-(0)-0--8---8-7--8-|-(8)-8--8---8-7--8-|-(8)-8--8---8-7--10-|----8---7--3--0-|
|-(0)-0-----------8-|-(8)-8-----------7-|-(7)-7--------------|--------------0-|
|
| Gtr II
|     PM                  PM                  PM
| +E  E  q   E q  E   +E  E  q   E q  E   +E  E  q   E q   E   E  q   q  q  E
|-------------------|-------------------|--------------------|----------------|
|-------------------|-------------------|--------------------|----------------|
|-------10--10-9----|-------10--10-9----|-------10--10-9--12-|---14--12--9----|
|-(0)----x---x-x--8-|-(8)----x---x-x--7-|-(7)----x---x-x---x-|----x---x--x--0-|
|-(0)-0--8---8-7--8-|-(8)-8--8---8-7--8-|-(8)-8--8---8-7--10-|---12--10--7--0-|
|-(0)-0-----------8-|-(8)-8-----------7-|-(7)-7--------------|--------------0-|


  D5    N.C.      Bb5       N.C.      F/A       N.C.
      PM                  PM                  PM
  +E  E  q   E q  E   +E  E  q   E q  E   +E  E  q   E q   E   E  q   q  q  E
|-------------------|-------------------|--------------------|----------------||
|-------------------|-------------------|--------------------|----------------||
|-------10--10-9----|-------10--10-9----|-------10--10-9--12-|---10---9--5----||
|-(0)----x---x-x--8-|-(8)----x---x-x--7-|-(7)----x---x-x---x-|----x---x--x----||
|-(0)-0--8---8-7--8-|-(8)-8--8---8-7--8-|-(8)-8--8---8-7--10-|----8---7--3----||
|-(0)-0-----------8-|-(8)-8-----------7-|-(7)-7--------------|----------------||
|
|     PM                  PM                  PM
| +E  E  q   E q  E   +E  E  q   E q  E   +E  E  q   E q   E   E  q   q  q  E
|-------------------|-------------------|--------------------|----------------||
|-------------------|-------------------|--------------------|----------------||
|-------10--10-9----|-------10--10-9----|-------10--10-9--12-|---14--12--9----||
|-(0)----x---x-x--8-|-(8)----x---x-x--7-|-(7)----x---x-x---x-|----x---x--x----||
|-(0)-0--8---8-7--8-|-(8)-8--8---8-7--8-|-(8)-8--8---8-7--10-|---12--10--7----||
|-(0)-0-----------8-|-(8)-8-----------7-|-(7)-7--------------|----------------||


   "Bound and gagged.."
    N.C.
    Q.         Q.    Q      Q.   Q.    Q
||----------------------|-----------------|
||o---------------------|-----------------|
||-------------------9--|-/10----9--------|
||-------------7--------|-------------10--|
||o-5-------------------|-----------------|
||----------------------|-----------------|
|
|   S  Q   +S  Q.    Q     +W
||----------------------|-----------------|
||o---------------------|-----------------|
||--9h10--(10)-9--------|-----------------|
||------------------10--|-(10)------------|
||o---------------------|-----------------|
||----------------------|-----------------|


  Q.         Q.    Q      Q.   Q.    Q
|---------------------|------------------|
|---------------------|------------------|
|------------------5--|-/10----9---------|
|------------3--------|-------------10---|
|-1-------------------|------------------|
|---------------------|------------------|
|
| S  Q   +S  Q.    Q     +W
|---------------------|------------------|
|---------------------|------------------|
|-9h10--(10)-9--------|------------------|
|-----------------10--|-(10)-------------|
|---------------------|------------------|
|---------------------|------------------|


  1.
  N.C.                                      G5
  Q.         Q.    Q     S  Q   +S   Q.   E E
|---------------------|-----------------------|
|---------------------|-----------------------|
|------------------5--|--9h10--(10)--9--------|
|------------3--------|-------------------x-5-|
|---------------------|-------------------x-5-|
|-3-------------------|-------------------x-5-|
|
| S  Q   +S  Q.    Q     S  Q   +S   Q.   E E
|---------------------|-----------------------|
|---------------------|-----------------------|
|-9h10--(10)-9--------|-12h14--(14)-12--------|
|-----------------10--|-------------------x-5-|
|---------------------|-------------------x-5-|
|---------------------|-------------------x-5-|


                  F5              G5
  +E  E E E E E E E   +E  E E E E E Q
|-------------------|---------------------||
|-------------------|--------------------o||
|-------------------|---------------------||
|-(5)-5-5-5-5-5-5-3-|-(3)-3-3-3-3-5-------||
|-(5)-5-5-5-5-5-5-3-|-(3)-3-3-3-3-5------o||
|-(5)-5-5-5-5-5-5-3-|-(3)-3-3-3-3-5-------||
|
| +E  E E E E E E E   +E  E E E E E Q
|-------------------|---------------------||
|-------------------|--------------------o||
|-------------------|---------------------||
|-(5)-5-5-5-5-5-5-3-|-(3)-3-3-3-3-5-------||
|-(5)-5-5-5-5-5-5-3-|-(3)-3-3-3-3-5------o||
|-(5)-5-5-5-5-5-5-3-|-(3)-3-3-3-3-5-------||


  2.
  N.C.                                      C5
  Q.         Q.    Q     S  Q   +S   Q.   E  E
|---------------------|------------------------|
|---------------------|------------------------|
|------------------5--|--9h10--(10)--9---------|
|------------3--------|-------------------x-10-|
|---------------------|-------------------x-10-|
|-3-------------------|-------------------x-10-|
|
| S  Q   +S  Q.    Q     S  Q   +S   Q.   E  E
|---------------------|------------------------|
|---------------------|------------------------|
|-9h10--(10)-9--------|-12h14--(14)-12---------|
|-----------------10--|-------------------x-10-|
|---------------------|-------------------x-10-|
|---------------------|-------------------x-10-|


                         A/C#                        F5
   +E   E  E  E  E  E  E  E    +E   E  E  E  E  E  E E
|---------------------------|----------------------------||
|---------------------------|----------------------------||
|---------------------------|----------------------------||
|-(10)-10-10-10-10-10-10-11-|-(11)-11-11-11-11-11-11-3---||
|-(10)-10-10-10-10-10-10-12-|-(12)-12-12-12-12-12-12-3---||
|-(10)-10-10-10-10-10-10-11-|-(11)-11-11-11-11-11-11-3---||
|
|  +E   E  E  E  E  E  E  E    +E   E  E  E  E  E  E E
|---------------------------|----------------------------||
|---------------------------|----------------------------||
|---------------------------|----------------------------||
|-(10)-10-10-10-10-10-10-11-|-(11)-11-11-11-11-11-11-3---||
|-(10)-10-10-10-10-10-10-12-|-(12)-12-12-12-12-12-12-3---||
|-(10)-10-10-10-10-10-10-11-|-(11)-11-11-11-11-11-11-3---||


 "Drown your sorrows in.."
  F5                                C
  Gtrs I, II
  +E  E E E E E E E   E E E E E E E  E
|-------------------|------------------|
|-------------------|------------------|
|-------------------|------------------|
|-(3)-3-3-3-3-3-3-3-|-3-3-3-3-3-3-3-10-|
|-(3)-3-3-3-3-3-3-3-|-3-3-3-3-3-3-3--7-|
|-(3)-3-3-3-3-3-3-3-|-3-3-3-3-3-3-3-10-|


                                                   D5
   +E   E  E  E  E  E  E  E    E  E  E  E  E  E  E  E
|---------------------------|-------------------------|
|---------------------------|-------------------------|
|---------------------------|-------------------------|
|-(10)-10-10-10-10-10-10-10-|-10-10-10-10-10-10-10-12-|
|--(7)--7--7--7--7--7--7--7-|--7--7--7--7--7--7--7-12-|
|-(10)-10-10-10-10-10-10-10-|-10-10-10-10-10-10-10-12-|


  D5                   C5                        Bb5
   +E   E  E  E  E  q   E    +E   E  E  E  E  q  E
|-------------------------|------------------------|
|-------------------------|------------------------|
|-------------------------|------------------------|
|-(12)-12-12-12-12-12--10-|-(10)-10-10-10-10-10--8-|
|-(12)-12-12-12-12-12--10-|-(10)-10-10-10-10-10--8-|
|-(12)-12-12-12-12-12--10-|-(10)-10-10-10-10-10--8-|


                                    F5
  +E  E E E E E E E   E E E E E E E E
|-------------------|-----------------|
|-------------------|-----------------|
|-------------------|-----------------|
|-(8)-8-8-8-8-8-8-8-|-8-8-8-8-8-8-8-3-|
|-(8)-8-8-8-8-8-8-8-|-8-8-8-8-8-8-8-3-|
|-(8)-8-8-8-8-8-8-8-|-8-8-8-8-8-8-8-3-|


  F5                                C
  +E  E E E E E E E   E E E E E E E  E
|-------------------|------------------|
|-------------------|------------------|
|-------------------|------------------|
|-(3)-3-3-3-3-3-3-3-|-3-3-3-3-3-3-3-10-|
|-(3)-3-3-3-3-3-3-3-|-3-3-3-3-3-3-3--7-|
|-(3)-3-3-3-3-3-3-3-|-3-3-3-3-3-3-3-10-|


                                                   D5
   +E   E  E  E  E  E  E  E    E  E  E  E  E  E  E  E
|---------------------------|-------------------------|
|---------------------------|-------------------------|
|---------------------------|-------------------------|
|-(10)-10-10-10-10-10-10-10-|-10-10-10-10-10-10-10-12-|
|--(7)--7--7--7--7--7--7--7-|--7--7--7--7--7--7--7-12-|
|-(10)-10-10-10-10-10-10-10-|-10-10-10-10-10-10-10-12-|


  D5                   C5                        Bb5
   +E   E  E  E  E  q   E    +E   E  E  E  E  q  E
|-------------------------|------------------------|
|-------------------------|------------------------|
|-------------------------|------------------------|
|-(12)-12-12-12-12-12--10-|-(10)-10-10-10-10-10--8-|
|-(12)-12-12-12-12-12--10-|-(10)-10-10-10-10-10--8-|
|-(12)-12-12-12-12-12--10-|-(10)-10-10-10-10-10--8-|


  +E  E E E E E E E   E E E E E E E E
|-------------------|-----------------||
|-------------------|-----------------||
|-------------------|-----------------||
|-(8)-8-8-8-8-8-8-8-|-8-8-8-8-8-8-8-8-||
|-(8)-8-8-8-8-8-8-8-|-8-8-8-8-8-8-8-8-||
|-(8)-8-8-8-8-8-8-8-|-8-8-8-8-8-8-8-8-||


 Interlude
  D5
  Gtr I
        PM  PM  PM      PM  PM  PM              PM  PM  PM      PM  PM  PM
  E E E E E E E E    E  E E E E E E E    E  E E E E E E E    E  E E E E E E E
|-------------5---|--6----5-----------|---------------5---|--6----5-----------|
|-----5---6-------|-----------6---5-6-|-------5---6-------|-----------6---5-6-|
|-7-7-------------|-------------------|--7--7-------------|-------------------|
|-------7---7---7-|-----7---7---7-----|---------7---7---7-|-----7---7---7-----|
|-----------------|-------------------|-------------------|-------------------|
|-----------------|-------------------|-------------------|-------------------|
|
| Gtr II
| W                 +W                  +W                  +W
|-----------------|-------------------|-------------------|-------------------|
|-----------------|-------------------|-------------------|-------------------|
|-----------------|-------------------|-------------------|-------------------|
|-0---------------|-(0)---------------|-(0)---------------|-(0)---------------|
|-0---------------|-(0)---------------|-(0)---------------|-(0)---------------|
|-0---------------|-(0)---------------|-(0)---------------|-(0)---------------|


  Bb5                                   C5
  Gtr I
        PM  PM  PM      PM  PM  PM       PM----------------------
  E E E E E E E E    E  E E E E E E E    E  E  E  E  E  E  E  E
|-------------5---|--6----5-----------|-------------------------|
|-----5---6-------|-----------6---5-6-|-------------------------|
|-7-7-------------|-------------------|-------------------------|
|-------7---7---7-|-----7---7---7-----|-------------------------|
|-----------------|-------------------|-10-10-10-10-10-10-10-10-|
|-----------------|-------------------|-10-10-10-10-10-10-10-10-|
|
| Gtr II
|                                        PM----------------------
| W                 +W                   E  E  E  E  E  E  E  E
|-----------------|-------------------|-------------------------|
|-----------------|-------------------|-------------------------|
|-----------------|-------------------|-------------------------|
|-8---------------|-(8)---------------|-------------------------|
|-8---------------|-(8)---------------|-10-10-10-10-10-10-10-10-|
|-8---------------|-(8)---------------|-10-10-10-10-10-10-10-10-|
|
| Gtr III
| W                  W                   W
|-----------------|-------------------|-------------------------|
|-----------------|-------------------|-------------------------|
|-----------------|-------------------|-------------------------|
|-----------------|-------------------|-------------------------|
|-----------------|-------------------|-------------------------|
|-----------------|-------------------|-------------------------|


 ------------------------------------------------|
   E  E  E  E  E  E  E  E    E  E  E  E  E  E  E  E
|-------------------------|-------------------------||
|-------------------------|-------------------------||
|-------------------------|-------------------------||
|-------------------------|-------------------------||
|-10-10-10-10-10-10-10-10-|-10-10-10-10-10-10-10-10-||
|-10-10-10-10-10-10-10-10-|-10-10-10-10-10-10-10-10-||
|
|------------------------------------------------|
|  E  E  E  E  E  E  E  E    E  E  E  E  E  E  E  E
|-------------------------|-------------------------||
|-------------------------|-------------------------||
|-------------------------|-------------------------||
|-------------------------|-------------------------||
|-10-10-10-10-10-10-10-10-|-10-10-10-10-10-10-10-10-||
|-10-10-10-10-10-10-10-10-|-10-10-10-10-10-10-10-10-||
|
|  H           E  E  E  E    E  E  E  E  E  E  E  E
|-------------------------|-------------------------||
|-------------------------|-------------------------||
|--------------5--5--7--7-|--9--9-10-10-12-12-14-14-||
|--------------x--x--x--x-|--x--x--x--x--x--x--x--x-||
|--------------3--3--5--5-|--7--7--8--8-10-10-12-12-||
|-------------------------|-------------------------||


   "My fingers are yours to.."
    N.C.        D5    N.C.        D5    N.C.        D5    N.C.        D5
   3/4
    Gtrs I, II
                PM|               PM|               PM|               PM|
     E  E  E  E E E    E  E  E  E E E    E  E  E  E E E    E  E  E  E E E
||------------------|-----------------|-----------------|-----------------|
||o-----------------|-----------------|-----------------|-----------------|
||--17-17-17-17-----|-14-14-14-14-----|-15-15-15-15-----|-14-15-14-12-----|
||---x--x--x--x-----|--x--x--x--x-----|--x--x--x--x-----|--x--x--x--x-----|
||o-15-15-15-15-0-0-|-12-12-12-12-0-0-|-13-13-13-13-0-0-|-12-13-12-10-0-0-|
||--------------0-0-|-------------0-0-|-------------0-0-|-------------0-0-|


  N.C.        D5    N.C.        D5    N.C.        D5    N.C.        D5
              PM|               PM|               PM|               PM|
   E  E  E  E E E    E  E  E  E E E    E  E  E  E E E    E  E  E  E E E
|-----------------|-----------------|-----------------|-----------------|
|-----------------|-----------------|-----------------|-----------------|
|-17-17-17-17-----|-14-14-14-14-----|-15-15-15-15-----|-14-15-14-19-----|
|--x--x--x--x-----|--x--x--x--x-----|--x--x--x--x-----|--x--x--x--x-----|
|-15-15-15-15-0-0-|-12-12-12-12-0-0-|-13-13-13-13-0-0-|-12-13-12-17-0-0-|
|-------------0-0-|-------------0-0-|-------------0-0-|-------------0-0-|


  N.C.        D5    N.C.        D5    N.C.        D5    N.C.        D5
              PM|               PM|               PM|               PM|
   E  E  E  E E E    E  E  E  E E E    E  E  E  E E E    E  E  E  E E E
|-----------------|-----------------|-----------------|-----------------|
|-----------------|-----------------|-----------------|-----------------|
|-17-17-17-17-----|-14-14-14-14-----|-15-15-15-15-----|-14-15-14-12-----|
|--x--x--x--x-----|--x--x--x--x-----|--x--x--x--x-----|--x--x--x--x-----|
|-15-15-15-15-0-0-|-12-12-12-12-0-0-|-13-13-13-13-0-0-|-12-13-12-10-0-0-|
|-------------0-0-|-------------0-0-|-------------0-0-|-------------0-0-|


  1.
  D5            N.C.                D5            N.C.
  PM--------|                       PM--------|
  E E E E E E    E  E  E  E  E  E   E E E E E E    E  E  E  E  E  E
|-------------|-------------------|-------------|--------------------||
|-------------|-------------------|-------------|-------------------o||
|-------------|-10-10-10-10-10-10-|-------------|-10-10-10-10-10-10--||
|-------------|--x--x--x--x--x--x-|-------------|--x--x--x--x--x--x--||
|-0-0-0-0-0-0-|--8--8--8--8--8--8-|-0-0-0-0-0-0-|--8--8--8--8--8--8-o||
|-0-0-0-0-0-0-|-------------------|-0-0-0-0-0-0-|--------------------||


  2.
  D5            N.C.                D5            N.C.
  Gtr I
  PM--------|                       PM--------|
  E E E E E E    E  E  E  E  E  E   E E E E E E    E  E  E  E  E  E
|-------------|-------------------|-------------|-------------------||
|-------------|-------------------|-------------|-------------------||
|-------------|-10-10-10-10-10-10-|-------------|-10-10-10-10-10-10-||
|-------------|--x--x--x--x--x--x-|-------------|--x--x--x--x--x--x-||
|-0-0-0-0-0-0-|--8--8--8--8--8--8-|-0-0-0-0-0-0-|--8--8--8--8--8--8-||
|-0-0-0-0-0-0-|-------------------|-0-0-0-0-0-0-|-------------------||
|
| Gtr II
| PM--------|                       PM--------|
| E E E E E E    E  E  E  E  E  E   E E E E E E    E  E  E  E  E  E
|-------------|-------------------|-------------|-------------------||
|-------------|-------------------|-------------|-------------------||
|-------------|-10-10-10-10-10-10-|-------------|-14-14-14-14-14-14-||
|-------------|--x--x--x--x--x--x-|-------------|--x--x--x--x--x--x-||
|-0-0-0-0-0-0-|--8--8--8--8--8--8-|-0-0-0-0-0-0-|-12-12-12-12-12-12-||
|-0-0-0-0-0-0-|-------------------|-0-0-0-0-0-0-|-------------------||


   "I can't trust anyone.."
    Gtrs I, II
     E  E  E  E  E  E    E  E  E  E  E  E
||--------------------|-------------------|
||o-------------------|-------------------|
||--17-17-17-17-17-17-|-14-14-14-14-14-14-|
||---x--x--x--x--x--x-|--x--x--x--x--x--x-|
||o-15-15-15-15-15-15-|-12-12-12-12-12-12-|
||--------------------|-------------------|


   E  E  E  E  E  E    E  E  E  E  E  E
|-------------------|--------------------|
|-------------------|--------------------|
|-15-15-15-15-15-15-|-14-15-14-12-12-12--|
|--x--x--x--x--x--x-|--x--x--x--x--x--x--|
|-13-13-13-13-13-13-|-12-13-12-10-10-10--|
|-------------------|--------------------|


  1.
   E  E  E  E  E  E    E  E  E  E  E  E
|-------------------|-------------------|
|-------------------|-------------------|
|-17-17-17-17-17-17-|-14-14-14-14-14-14-|
|--x--x--x--x--x--x-|--x--x--x--x--x--x-|
|-15-15-15-15-15-15-|-12-12-12-12-12-12-|
|-------------------|-------------------|


   E  E  E  E  E  E    E  E  E  E  E  E
|-------------------|--------------------||
|-------------------|-------------------o||
|-15-15-15-15-15-15-|-14-15-14-19-19-19--||
|--x--x--x--x--x--x-|--x--x--x--x--x--x--||
|-13-13-13-13-13-13-|-12-13-12-17-17-17-o||
|-------------------|--------------------||


  2.
  D5            N.C.                D5            N.C.
  PM--------|                       PM--------|
  E E E E E E    E  E  E  E  E  E   E E E E E E    E  E  E  E  E  E
|-------------|-------------------|-------------|-------------------|
|-------------|-------------------|-------------|-------------------|
|-------------|-10-10-10-10-10-10-|-------------|-10-10-10-10-10-10-|
|-------------|--x--x--x--x--x--x-|-------------|--x--x--x--x--x--x-|
|-0-0-0-0-0-0-|--8--8--8--8--8--8-|-0-0-0-0-0-0-|--8--8--8--8--8--8-|
|-0-0-0-0-0-0-|-------------------|-0-0-0-0-0-0-|-------------------|


  PM--------|                       PM--------|
  E E E E E E    E  E  E  E  E  E   E E E E E E    E  E  E  E  E  E
|-------------|-------------------|-------------|-------------------||
|-------------|-------------------|-------------|-------------------||
|-------------|-14-14-14-14-14-14-|-------------|-14-14-14-14-14-14-||
|-------------|--x--x--x--x--x--x-|-------------|--x--x--x--x--x--x-||
|-0-0-0-0-0-0-|-12-12-12-12-12-12-|-0-0-0-0-0-0-|-12-12-12-12-12-12-||
|-0-0-0-0-0-0-|-------------------|-0-0-0-0-0-0-|-------------------||


 *Breakdown Outro*
  D5
  PM------------------------------------------------------------|
  E q  q  E   q  S S S S S S S S   E q  q  E   q  S S S S S S S S
|-----------|--------------------|-----------|--------------------|
|-----------|--------------------|-----------|--------------------|
|-----------|--------------------|-----------|--------------------|
|-----------|--------------------|-----------|--------------------|
|-0-0--0--0-|-0--0-0-0-0-0-0-0-0-|-0-0--0--0-|-0--0-0-0-0-0-0-0-0-|
|-0-0--0--0-|-0--0-0-0-0-0-0-0-0-|-0-0--0--0-|-0--0-0-0-0-0-0-0-0-|


  D5
  PM-------------------------------------------|
  E q  q  E   q  S S S S S S S S   E q  q  E   q  H      Wx8
|-----------|--------------------|-----------|---------|--------*|
|-----------|--------------------|-----------|---------|--------*|
|-----------|--------------------|-----------|---------|--------*|
|-----------|--------------------|-----------|---------|--------*|
|-0-0--0--0-|-0--0-0-0-0-0-0-0-0-|-0-0--0--0-|-0-------|--------*|
|-0-0--0--0-|-0--0-0-0-0-0-0-0-0-|-0-0--0--0-|-0-------|--------*|


Duration Legend
---------------
W - whole; H - half; Q - quarter; E - 8th; S - 16th; T - 32nd; X - 64th; a - acciaccatura
+ - note tied to previous; . - note dotted; .. - note double dotted
Uncapitalized letters represent notes that are staccato (1/2 duration)
Irregular groupings are notated above the duration line
Duration letters will always appear directly above the note/fret number it represents the
duration for.  Duration letters with no fret number below them represent rests.  Multi-
bar rests are notated in the form Wxn, where n is the number of bars to rest for.  Low
melody durations appear below the staff

Tablature Legend
----------------
 h   - hammer-on
 p   - pull-off
 b   - bend
 pb  - pre-bend
 r   - bend release (if no number after the r, then release immediately)
 /\  - slide into or out of (from/to "nowhere")
 s   - legato slide
 S   - shift slide
<n>  - natural harmonic
[n]  - artificial harmonic
n(n) - tapped harmonic
 ~   - vibrato
 tr  - trill
 T   - tap
 TP  - trem. picking
 PM  - palm muting
\n/  - tremolo bar dip; n = amount to dip
 \n  - tremolo bar down
 n/  - tremolo bar up
/n\  - tremolo bar inverted dip
 =   - hold bend; also acts as connecting device for hammers/pulls
 <>  - volume swell (louder/softer)
 x   - on rhythm slash represents muted slash
 o   - on rhythm slash represents single note slash

Misc Legend
-----------
 |  - bar
||  - double bar
||o - repeat start
o|| - repeat end
*|  - double bar (ending)
 :  - bar (freetime)
 $  - Segno
 &  - Coda
Tempo markers - <E/E./Q/Q./H/H.> = BPM(8/16=s8/s16), where s8 = swing 8ths, s16 = swing 16ths


***************************************************************************************
* Generated using Power Tab Editor by Brad Larsen - http://powertab.guitarnetwork.org *
***************************************************************************************
comments
print report bad tab
2 comments total.
0 reply
monkeycheez4 wrote on May 7 2006, 08:58 pm

yeah you commented on my fist wrapped in blood tab. this looks ALOT different then my tab. i was missing ALOT of the variations, considering it was my first tab. you must be a badass guitarist, i wish i was as good as you. P.S. what were you doing up at 8:45 in the morning commenting on a guitar tab.

0 reply
jonathanonfire wrote on May 11 2006, 06:18 pm

iuno i was checking my tabs and saw yours. bored...
im obsessed with playing guitar and tabs. so sue me. =P

I want to post or [tab]
guest
You may want to rate the tab now too:
select rating
Please do not post tabs as comments. Select "correction" instead!