Oops, an error
Loading. Please wait.

Here Today Gone Tomorrow Bass Tab

682 views 3 this week
no commentswrite comment
1 2 3 4 5
please rate
Autoscroll
+/-
esc
set tempo
stop
Contributor
WARNING: You are trying to view
                                    content from Ultimate-Guitar.com
                                    in an unauthorized application,
                                    which is prohibited.

                                    Please use an official Ultimate
                                    Guitar Tabs application for iPhone,
                                    iPad or Android to access legitimate
                                    chords, guitar, bass, and drum tabs
                                    from Ultimate-Guitar.com database.

                                    Type "ultimate guitar tabs" in Apple
                                    App Store's or Android Market's
                                    search to find the application.
++++++++++++++++++++++++++++++++++++++++++
| Silverstein- Here Today, Gone Tomorrow |
++++++++++++++++++++++++++++++++++++++++++

Tuning: Half a step down (EbADG)

Really good song,

Verse
"Thirty hour drive from home..."
1.
G |---------------------------------------------------------|
D |---------------------------------------------------------|
A |---------------------------------------------------------|
Eb|-444444-444444-222222-222222-000000-000000-222222-222222-|

2.
G |------------------------------------------------------------|
D |------------------------------------------------------------|
A |------------------------------------------------------------|
Eb|-444444-444444-222222-222222-000000-000000-222-x2xx2xx2xx22-|

Chorus
"Here today, gone tomorrow..."
3.
G |--------------------------------------------------|
D |--------------------------------------------------|
A |-----------0-11111-1111---------------------------|
Eb|-00000-4444------------4-00000-44444-22222-22224x-|

"Dont be sad..."
4.
G |----------------------------------------------|
D |----------------------------------------------|
A |-----------0-11111-1111-----------------------|
Eb|---000-4444------------4-00000-44444-22222-2x-|

Verse
"An icy rode with no remorse..."
5.
G |---------------------------------------------------------|
D |---------------------------------------------------------|
A |---------------------------------------------------------|
Eb|-444444-444444-222222-222222-000000-000000-222222-222222-|

6.
G |------------------------------------------------------------|
D |------------------------------------------------------------|
A |------------------------------------------------------------|
Eb|-444444-444444-222222-222222-000000-000000-222-x2xx2xx2xx22-|

Chorus
"Here today, gone tomorrow..."
7.
G |--------------------------------------------------|
D |--------------------------------------------------|
A |-----------0-11111-1111---------------------------|
Eb|-00000-4444------------4-00000-44444-22222-22224x-|

"Dont be sad..."
8.
G |-------------------------------------------------|
D |-------------------------------------------------|
A |-----------0-11111-1111--------------------------|
Eb|---000-4444------------4-00000-44444-22222-22224-|

"I wont forget..."
9.
G |-----------------------------------------------------------|
D |-----------------------------------------------------------|
A |-----------------------------------------------------------|
Eb|-00004-22224-44444444-4444442--00004-22224-22-000000000000-|

Bridge
"All my life..."
10.
G |------------------------------------------|
D |------------------------------------------|
A |------------------------------------11111-|--x4
Eb|-4-4-44-4-2-2-22-2-5-5-55-5--00000--------|

"Here today gone tomorrow..."
11.
G |-------------------------------|
D |-------------------------------|
A |-------------------------------|
Eb|-0~------------------------2-4-|

Chorus
"Here today, gone tomorrow..."
12.
G |--------------------------------------------------|
D |--------------------------------------------------|
A |-----------0-11111-1111---------------------------|
Eb|-00000-4444------------4-00000-44444-22222-22224x-|

"Dont be sad..."
13.
G |-------------------------------------------------|
D |-------------------------------------------------|
A |-----------0-11111-1111--------------------------|
Eb|---000-4444------------4-00000-44444-22222-22224-|

"I wont forget..."
14.
G |----------------------------------------------------------------|
D |----------------------------------------------------------------|
A |----------------------------------------------------------------|
Eb|-00004-22224-44444444-4444442--00004-22224-22-44444444-44444442-|

"I wont forget..."
15.
G |----------------------------------------------------------------|
D |----------------------------------------------------------------|
A |----------------------------------------------------------------|
Eb|-00004-22224-44444444-4444442--00004-22224-22-00000000000000-4x-|

16.
G |-----------------|
D |-----------------|
A |-----------------|
Eb|-0~-0~-0~--------|

Lyrics:

Thirty hour drive from home.
Think I'd feel so alone, that couldn't be less true.
Family travelling by my side.
Lifeline friends we can't deny.
See the world with you.

Here today, gone tomorrow.
We're saying our goodbyes.
Drive away from the past.
Don't be sad, don't feel sorrow.
The memories in our hearts, I won't forget.

An icy road with no remorse.
A metal box drifting off course is taking everything.
I can't believe we lost you,
I can't feel any worse now.
This must be a dream.
When will someone wake me?

I won't forget.
It's in our hearts, it's in our hearts

All my life, I've never felt so strong as when we're all together.
All my days, I've never felt so powerless when you were taken away.
There's no one in this world with so much love and so much passion.
We'll say goodbye, but we won't forget the liberty and fortitude.

+++++++++++++++++++++++++++++++++
| RaiLeff                       |
| Underground__Dora@Hotmail.Com |
+++++++++++++++++++++++++++++++++
comments
We did not receive enough feedback on this tab! Please rate:
print report bad tab
1 2 3 4 5
I want to post or [tab]
guest
You may want to rate the tab now too:
select rating
Please do not post tabs as comments. Select "correction" instead!