Oops, an error
Loading. Please wait.

If You Could See Into My Soul Bass Tab

ver1
ver1

Whole song

Interactive

More versions @911Tabs.com
3,885 views 3 this week
6 commentsread comments
1 2 3 4 5
excellent!
x 7
Autoscroll
+/-
esc
set tempo
stop
Contributor
Tuning
D A D G B E
Hey! There's an official Ultimate Guitar app which is ideal
for learning songs when you're away from computer. Get the app
WARNING: You are trying to view
                                    content from Ultimate-Guitar.com
                                    in an unauthorized application,
                                    which is prohibited.

                                    Please use an official Ultimate
                                    Guitar Tabs application for iPhone,
                                    iPad or Android to access legitimate
                                    chords, guitar, bass, and drum tabs
                                    from Ultimate-Guitar.com database.

                                    Type "ultimate guitar tabs" in Apple
                                    App Store's or Android Market's
                                    search to find the application.
++++++++++++++++++++++++++++++++++++++++++++++
| Silverstein- If You Could See Into My Soul |
++++++++++++++++++++++++++++++++++++++++++++++

Tuning: Drop D (DADG)

I know step one is not the bass
but I like to play it meanwhile
Enjoy!


Intro (Step one, dough!)
1.
G|---------------------------------|
D|-----------------4-4-4-4---------|
A|-6-6-6-6-6-6-6-6---------4-4-4-4-|--x2
D|---------------------------------|

2.
G|-------------------------------------------------------------------------|
D|-------------------44444444----------------------------44444444----------|
A|-66666666-66666666----------44444444-66666666-66666666----------44444444-|
D|-------------------------------------------------------------------------|

3.
G|----------------|
D|----------------|
A|-4-6-6-4-66666x-|
D|----------------|

Verse
"I hear you choking..."
4.
G|-------------------------------33---------------|
D|-------44----------------3h4444--4--------33----|
A|-4h6666--6---4h6666664---------------44444--4---|--x2
D|------------------------------------------------|

"We've been down this road..."
5.
G|------------------------------------------------|
D|-------------------------------11---------33----|
A|-4h6666664---4h6666664---222222--2---44444--4---|
D|------------------------------------------------|

6.
G|-------------------------------33---------------|
D|-------44----------------3h4444--4--------33----|
A|-4h6666--6---4h6666664---------------44444--4---|
D|------------------------------------------------|

Pre-Chorus
7.
G|----------------|
D|----------------|
A|-4444444444-5-5-|
D|----------------|

Chorus
"Get ready, get ready, get ready for this..."
8.
G|-----------------------------------------------------------------------|
D|-111---111---11------------------------111---111--11-------------------|
A|-----------------------------------------------------------------------|
D|----111---111--11-44444444-66666666-111---111---11---66666666-44444466-|

9.
G|-----------------------------------------------------------------------|
D|-111---111---11------------------------111---111--11-------------------|
A|-----------------------------------------------------------------------|
D|----111---111--11-44444444-66666666-111---111---11---66666666-44444466-|

10.
G|-------------------|
D|-------------------|
A|-11111111-11111111-|
D|-------------------|

Outro
11.
G|-------------------------------------------------------------------------|
D|-------------------44444444----------------------------44444444----------|
A|-66666666-66666666----------44444444-66666666-66666666----------44444444-|
D|-------------------------------------------------------------------------|

12.
G|----------------|
D|----------------|
A|-4-6-6-4-66666x-|
D|----------------|

Verse
"Im leaving you out..."
13.
G|-------------------------------33---------------|
D|-------44----------------3h4444--4--------33----|
A|-4h6666--6---4h6666664---------------44444--4---|--x2
D|------------------------------------------------|

14.
G|------------------------------------------------|
D|-------------------------------11---------33----|
A|-4h6666664---4h6666664---222222--2---44444--4---|
D|------------------------------------------------|

15.
G|-------------------------------33---------------|
D|-------44----------------3h4444--4--------33----|
A|-4h6666--6---4h6666664---------------44444--4---|
D|------------------------------------------------|

Pre-Chorus
16.
G|----------------|
D|----------------|
A|-4444444444-5-5-|
D|----------------|

Chorus
"Get ready, get ready, get ready for this..."
17.
G|-----------------------------------------------------------------------|
D|-111---111---11------------------------111---111--11-------------------|
A|-----------------------------------------------------------------------|
D|----111---111--11-44444444-66666666-111---111---11---66666666-44444466-|

18.
G|-----------------------------------------------------------------------|
D|-111---111---11------------------------111---111--11-------------------|
A|-----------------------------------------------------------------------|
D|----111---111--11-44444444-66666666-111---111---11---66666666-44444466-|

19.
G|-------------|
D|-------------|
A|-111111111~x-|
D|-------------|

Bridge
20.
G|---------------------------------------------------------------------------------|
D|---------------------------------------------------------------------------------|
A|---------------------222222x---------------------------------222222x-------------|
D|-111111x---111111x-------------4443343---111111x---111111x-------------4443343---|

21.
G|----------------------------------------------------------------------------------------|
D|------------------------------------3~--------------------------------------------------|
A|---------------------222222x---44343-------------------------222222x-44444444444444-5-5-|
D|-666666x---666666x-----------------------666666x---666666x------------------------------|

Chorus
"Get ready, get ready, get ready for this..."
22.
G|-----------------------------------------------------------------------|
D|-111---111---11------------------------111---111--11-------------------|
A|-----------------------------------------------------------------------|
D|----111---111--11-44444444-66666666-111---111---11---66666666-44444466-|

23.
G|-----------------------------------------------------------------------|
D|-111---111---11------------------------111---111--11-------------------|
A|-----------------------------------------------------------------------|
D|----111---111--11-44444444-66666666-111---111---11---66666666-44444466-|

24.
G|-------------------|
D|-------------------|
A|-11111111-11111111-|
D|-------------------|

Outro
25.
G|-------------------------------------------------------------------------|
D|-------------------44444444----------------------------44444444----------|
A|-66666666-66666666----------44444444-66666666-66666666----------44444444-|--x2
D|-------------------------------------------------------------------------|

26.
G|-------------------|
D|-------------------|
A|-4-6-6-4-66666x-6x-|
D|-------------------|

Lyrics:

I hear you choking on your words again
The secrets in your throat
And I really wish you'd say
What you're thinking
We've been down this road
So many times before
My stomach can not take it
I've been killing time
You've been crossing lines
You say

Get ready, get ready, get ready for this
I'm taking out my dagger
Just say it, just say it, just say it for me
I'm holding it up to your throat
are you ready, are you ready, are you ready for this
you don't wanna hear it
just say it, just say it, just say it again
It will tear your soul apart again

I'm leaving you out in the cold again
I'll let you freeze to death
I wont let you see the flames
Just the chimney
Where there's smoke there's fire
But I'm such a good liar
You cant read the signals
And my lips are sealed
Saying words that deal
Your shame

Stick to your guns
You've been betting it all on a long shot
16 ways
You gotta call a spade a spade
There is no ace up your sleeve
How can you believe you will win

+++++++++++++++++++++++++++++++++
| RaiLeff                       |
| Underground__Dora@Hotmail.Com |
+++++++++++++++++++++++++++++++++
comments
print report bad tab
6 comments total. Showing first comments.
0 reply
carrotcake wrote on July 3 2007, 10:25 am

can't wait to get that cd today!

-2 reply
carrotcake wrote on July 4 2007, 12:39 pm

I take that back... the cd sucks

0 reply
RaiLeff wrote on July 4 2007, 02:09 pm

Lol! xD
I think this is the only good song
Well not even, only the verse is groovy ha

I want to post or [tab]
guest
You may want to rate the tab now too:
select rating
Please do not post tabs as comments. Select "correction" instead!