Oops, an error
Loading. Please wait.

In Memory Of Tab

ver2
ver2

Whole song

More versions @911Tabs.com
630 views 1 this week
no commentswrite comment
1 2 3 4 5
please rate
Autoscroll
+/-
esc
set tempo
stop
Contributor
Difficulty
Tuning
intermediate
D# G# C# F# A# D#
WARNING: You are trying to view
                                    content from Ultimate-Guitar.com
                                    in an unauthorized application,
                                    which is prohibited.

                                    Please use an official Ultimate
                                    Guitar Tabs application for iPhone,
                                    iPad or Android to access legitimate
                                    chords, guitar, bass, and drum tabs
                                    from Ultimate-Guitar.com database.

                                    Type "ultimate guitar tabs" in Apple
                                    App Store's or Android Market's
                                    search to find the application.
Tabbed by: Joshua Garcia (joshuag523@aol.com)

Tabs for the song: In Memory Of... by Silverstein
Please rate and let me know if you have any corrections. Thank you.


**NOTE - This was taken from my full album tab, which can be found here: 
http://tabs.ultimate-guitar.com/s/silverstein/rescue_album_tab.htm **


Tuning: Half-Step Down (D# G# C# F# A# D#)



Intro
Guitar 1:
D#||--------------------------------------------------------------------------|
A#||--------------------------------------------------------------------------|
F#||--------------------------------------------------------------------------|
C#||--------16b17r16~---------12/14-14~----------16b17r16~---------12/14-14~--|
G#||-----14----------------11-----------------14----------------11------------|
D#||--12-----------------8-----------------12-----------------8---------------|


D#||--------------------------------------------------------|
A#||--------------------------------------------------------|
F#||--------------------------------------------------------|
C#||--------------12-12--------------7-7--------------------|
G#||--------10-10--------------10-10----------7h9-9/10-10~--|
D#||--12-12--------------10-10------------8-8---------------|



Guitar 1:
D#||--------------------------------------------------------------------------|
A#||--------------------------------------------------------------------------|
F#||--------------------------------------------------------------------------|
C#||--------16b17r16~---------12/14-14~----------16b17r16~---------12/14-14~--|
G#||-----14----------------11-----------------14----------------11------------|
D#||--12-----------------8-----------------12-----------------8---------------|


D#||---------------------------------------------------------------|
A#||---------------------------------------------------------------|
F#||---------------------------------------------------------------|
C#||--------------12-12--------------7-7---------------------------|
G#||--------10-10--------------10-10----------7h9-9/10-10~---\9p7--|
D#||--12-12--------------10-10------------8-8----------------------|


Guitar 2:
D#||---------------------------------------------------------------|
A#||---------------------------------------------------------------|
F#||---------------------------------------------------7~----------|
C#||---------------------------------------------------5~----------|
G#||---------------------------------------------------------------|
D#||---------------------------------------------------------------|


Guitar 1:
D#||--------------------------------------------------------------------------|
A#||--------------------------------------------------------------------------|
F#||--------------------------------------------------------------------------|
C#||--------16b17r16~---------12/14-14~----------16b17r16~---------12/14-14~--|
G#||-----14----------------11-----------------14----------------11------------|
D#||--12-----------------8-----------------12-----------------8---------------|


D#||--------------------------------------------------------|
A#||--------------------------------------------------------|
F#||--------------------------------------------------------|
C#||--------------12-12--------------7-7--------------------|
G#||--------10-10--------------10-10----------7h9-9/10-10~--|
D#||--12-12--------------10-10------------8-8---------------|


Guitar 2:
D#||--------------------------------------------------------|
A#||--------------------------------------------------------|
F#||---------------------------------------------------7~---|
C#||---------------------------------------------------5~---|
G#||--------------------------------------------------------|
D#||--------------------------------------------------------|



Guitar 1:
D#||--------------------------------------------------------------------------|
A#||--------------------------------------------------------------------------|
F#||--------------------------------------------------------------------------|
C#||--------16b17r16~---------12/14-14~----------16b17r16~---------12/14-14~--|
G#||-----14----------------11-----------------14----------------11------------|
D#||--12-----------------8-----------------12-----------------8---------------|


D#||---------------------------------------|
A#||---------------------------------------|
F#||---------------------------------------|
C#||--------------12-12--------------7-7---|
G#||--------10-10--------------10-10-------|
D#||--12-12--------------10-10-------------|


Guitar 1/2:
D#||--------------------|
A#||--------------------|
F#||---7---7---7---7~---|
C#||---5---5---5---5~---|
G#||---3---3---3---3~---|
D#||--------------------|



Chorus
Guitar 1:
D#||-------------------------------------------------------|
A#||-------------------------------------------------------|
F#||---7~---7---7-7~---7---7-------------------------------|
C#||---5~---5---5-5~---5---5--4b5~---r4~--0-4b5~---r4~--0--|
G#||---3~---3---3-3~---3---3-------------------------------|
D#||-------------------------------------------------------|


D#||-------------------------------------------------------|
A#||-------------------------------------------------------|
F#||--------------------------7/9-9-9-9-9-9\7-7-7~---7/9~--|
C#||---0h2~------------------------------------------------|
G#||-------------------------------------------------------|
D#||-------------------------------------------------------|


D#||-------------------------------|
A#||-------------------------------|
F#||-------------------------------|
C#||--4b5~---r4~--0-4b5~---r4~--0--|
G#||-------------------------------|
D#||-------------------------------|


D#||-----------------------------------------------------|
A#||--------------------------8-8-8-8-8-8-8-8-8-8-8-8----|
F#||--------------------------x-x-x-x-x-x-x-x-x-x-x-x----|
C#||---0h2~-------------------x-x-x-x-x-x-x-x-x-x-x-x----|
G#||--------------------------7-7-7-7-7-7-7-7-7-7-7-7----|
D#||-----------------------------------------------------|


Guitar 2:
D#||------------------------------------------------|
A#||------------------------------------------------|
F#||---7~---7---7-7~---7---7-7~---7~---7-7~--7777---|
C#||---5~---5---5-5~---5---5-5~---5~---5-5~--5555---|
G#||---3~---3---3-3~---3---3-3~---3~---3-3~--3333---|
D#||------------------------------------------------|


D#||-------------------------------------------------|
A#||-------------------------------------------------|
F#||-------------------------------------------------|
C#||---2~---2---2-2~---2---2-2~---2~---2-2~---2222---| x2
G#||---2~---2---2-2~---2---2-2~---2~---2-2~---2222---|
D#||---0~---0---0-0~---0---0-0~---0~---0-0~---0000---|



Verse
Guitar 1:
D#||---------------------------------------------------|---------------------------------------|
A#||--7-8---8---8-8-5---5---5-5-3---3---3-3-3---3---3--|--7-8---8---8-8-5---5---5-5-3---3---3--|
F#||--x-x---x---x-x-x---x---x-x-x---x---x-x-x---x---x--|--x-x---x---x-x-x---x---x-x-x---x---x--|
C#||--x-x---x---x-x-x---x---x-x-x---x---x-x-x---x---x--|--x-x---x---x-x-x---x---x-x-x---x---x--|
G#||--5-7---7---7-7-5---5---5-5-3---3---3-3-3---3---3--|--5-7---7---7-7-5---5---5-5-3---3---3--|
D#||---------------------------------------------------|---------------------------------------|


Guitar 1/2:
D#||----------------|
A#||----------------|
F#||--4~---4~---4~--|
C#||--x----x----x---| x2
G#||--5~---5~---5~--|
D#||--3~---3~---3~--|



Chorus
Guitar 1:
D#||-------------------------------------------------------|
A#||-------------------------------------------------------|
F#||---7~---7---7-7~---7---7-------------------------------|
C#||---5~---5---5-5~---5---5--4b5~---r4~--0-4b5~---r4~--0--|
G#||---3~---3---3-3~---3---3-------------------------------|
D#||-------------------------------------------------------|


D#||-------------------------------------------------------|
A#||-------------------------------------------------------|
F#||--------------------------7/9-9-9-9-9-9\7-7-7~---7/9~--|
C#||---0h2~------------------------------------------------|
G#||-------------------------------------------------------|
D#||-------------------------------------------------------|


D#||-------------------------------|
A#||-------------------------------|
F#||-------------------------------|
C#||--4b5~---r4~--0-4b5~---r4~--0--|
G#||-------------------------------|
D#||-------------------------------|


D#||----------------------------------------|
A#||----------------------------------------|
F#||----------------------------------------|
C#||---0h2~---------------------------------|
G#||------------------------------------5---|
D#||---------------------0--2--3--5--7------|


Guitar 2:
D#||------------------------------------------------|
A#||------------------------------------------------|
F#||---7~---7---7-7~---7---7-7~---7~---7-7~--7777---|
C#||---5~---5---5-5~---5---5-5~---5~---5-5~--5555---|
G#||---3~---3---3-3~---3---3-3~---3~---3-3~--3333---|
D#||------------------------------------------------|


D#||-------------------------------------------------|
A#||-------------------------------------------------|
F#||-------------------------------------------------|
C#||---2~---2---2-2~---2---2-2~---2~---2-2~---2222---| x2
G#||---2~---2---2-2~---2---2-2~---2~---2-2~---2222---|
D#||---0~---0---0-0~---0---0-0~---0~---0-0~---0000---|



Guitar 1:
D#||-------------------------------------------|-------------------------------------|
A#||-------------------------------------------|-------------------------------------|
F#||--------7----------------------------------|--------7----------------------------|
C#||-----5-----9--7~----5----5--7--7/9---7--5--|-----5-----9--7~----5----5--7--7/9~--| x2
G#||--3-------------------7--------------------|--7-------------------7--------------|
D#||-------------------------------------------|-------------------------------------|


Guitar 2:
D#||------------------------------------------------|
A#||------------------------------------------------|
F#||---7~---7---7-7~---7---7-7~---7~---7-7~--7777---|
C#||---5~---5---5-5~---5---5-5~---5~---5-5~--5555---|
G#||---3~---3---3-3~---3---3-3~---3~---3-3~--3333---|
D#||------------------------------------------------|


D#||-------------------------------------------------|
A#||-------------------------------------------------|
F#||-------------------------------------------------|
C#||---2~---2---2-2~---2---2-2~---2~---2-2~---2222---| x2
G#||---2~---2---2-2~---2---2-2~---2~---2-2~---2222---|
D#||---0~---0---0-0~---0---0-0~---0~---0-0~---0000---|



Interlude
Guitar 1:
D#||---------------------------------------------------------------|
A#||-------0-----0-----0-------------------------------------------|
F#||-----0-----0-----0---------0-------0-------0-------0-------0---|
C#||---2-----4-----5-----4-----------4---4-----------4---4---------| x4
G#||-----------------------3-2---2-3-------3-2---2-3-------3-2-----|
D#||---------------------------------------------------------------|


Guitar 2:
D#||--------------------------|
A#||--------------------------|
F#||--------------------------|
C#||--------------------------| x4
G#||---------------------3~---|
D#||---0~----2~----3~---------|



Guitar 1:
D#||-------------------------------------------------------|
A#||-------------------------------------------------------|
F#||--9~----7~-----9~----55---5555---55---5555--55---5555--|
C#||--x-----x------x-----xx---xxxx---xx---xxxx--xx---xxxx--| x2
G#||--7~----5~-----7~----33---3333---33---3333--33---3333--|
D#||-------------------------------------------------------|


D#||-------------------------------------------------------|
A#||-------------------------------------------------------|
F#||--9~----11~----12~---99---9999---99---9999--99---9777--|
C#||--x-----x------x-----xx---xxxx---xx---xxxx--xx---xxxx--| x2
G#||--7~----9~-----10~---77---7777---77---7777--77---7555--|
D#||-------------------------------------------------------|


Guitar 2:
D#||-------------------------------------------------------|
A#||-------------------------------------------------------|
F#||---------------------55---5555---55---5555--55---5555--|
C#||---2~----4~----5~----55---5555---55---5555--55---5555--| x4
G#||---2~----4~----5~----33---3333---33---3333--33---3333--|
D#||---0~----2~----3~--------------------------------------|



Guitar 1:
D#||--------------------------------------------------------------------------|
A#||--------------------------------------------------------------------------|
F#||--12~---14~----16~---1212---12121212---1212---12121212---1212---12111111--|
C#||--x-----x------x-----x-x----x-x-x-x----x-x----x-x-x-x----x-x----x-x-x-x---| x2
G#||--10~---12~----14~---1010---10101010---1010---10101010---1010---109-9-9---|
D#||--------------------------------------------------------------------------|


D#||------------------------------------------------------------------------------------------|
A#||------------------------------------------------------------------------------------------|
F#||--12~---14~----16~---12-------------------------------------------------------------------|
C#||--x-----x------x-----x-----------12-12-------------7-7-----------12-12--------------------|
G#||--10~---12~----14~---10----10-10-------------10-10---------10-10-------------10-10-12-12--|
D#||---------------------------------------10-10-----------8-8-------------10-10--------------|


Guitar 2:
D#||-------------------------------------------------------|
A#||-------------------------------------------------------|
F#||--9~----11~----12~---99---9999---99---9999--99---9777--|
C#||--x-----x------x-----xx---xxxx---xx---xxxx--xx---xxxx--| x2
G#||--7~----9~-----10~---77---7777---77---7777--77---7555--|
D#||-------------------------------------------------------|


D#||------------------------|
A#||------------------------|
F#||--9~----11~----12~---9--|
C#||--x-----x------x-----x--|
G#||--7~----9~-----10~---7--|
D#||------------------------|


Guitar 3:
D#||------------------------------------------------------|
A#||------------------------------------------------------|
F#||--------------------55---5555---55---5555--55---5555--|
C#||---2~----4~----5~---55---5555---55---5555--55---5555--| x2
G#||---2~----4~----5~---33---3333---33---3333--33---3333--|
D#||---0~----2~----3~-------------------------------------|


D#||--------------------------------------------------------------------------------|
A#||--------------------------------------------------------------------------------|
F#||--------------------------------------------------------------------------------|
C#||---2~----4~----5--2------------------------------------5-5-5-5-5-5-7-7-7-7-7-7--|
G#||---2~----4~----5--2------------------------------------3-3-3-3-3-3-5-5-5-5-5-5--|
D#||---0~----2~----3--0-------------------------------------------------------------|
                                                           . . . . . . . . . . . .



Chorus
Guitar 1:
D#||-------------------------------------------------------|
A#||-------------------------------------------------------|
F#||---7~---7---7-7~---7---7-------------------------------|
C#||---5~---5---5-5~---5---5--4b5~---r4~--0-4b5~---r4~--0--|
G#||---3~---3---3-3~---3---3-------------------------------|
D#||-------------------------------------------------------|


D#||-------------------------------------------------------|
A#||-------------------------------------------------------|
F#||--------------------------7/9-9-9-9-9-9\7-7-7~---7/9~--|
C#||---0h2~------------------------------------------------|
G#||-------------------------------------------------------|
D#||-------------------------------------------------------|


D#||-------------------------------|
A#||-------------------------------|
F#||-------------------------------|
C#||--4b5~---r4~--0-4b5~---r4~--0--|
G#||-------------------------------|
D#||-------------------------------|


D#||----------------------------------------|
A#||----------------------------------------|
F#||----------------------------------------|
C#||---0h2~---------------------------------|
G#||------------------------------------5---|
D#||---------------------0--2--3--5--7------|


Guitar 2:
D#||------------------------------------------------|
A#||------------------------------------------------|
F#||---7~---7---7-7~---7---7-7~---7~---7-7~--7777---|
C#||---5~---5---5-5~---5---5-5~---5~---5-5~--5555---|
G#||---3~---3---3-3~---3---3-3~---3~---3-3~--3333---|
D#||------------------------------------------------|


D#||-------------------------------------------------|
A#||-------------------------------------------------|
F#||-------------------------------------------------|
C#||---2~---2---2-2~---2---2-2~---2~---2-2~---2222---| x2
G#||---2~---2---2-2~---2---2-2~---2~---2-2~---2222---|
D#||---0~---0---0-0~---0---0-0~---0~---0-0~---0000---|



Guitar 1:
D#||-------------------------------------------|-------------------------------------|
A#||-------------------------------------------|-------------------------------------|
F#||--------7----------------------------------|--------7----------------------------|
C#||-----5-----9--7~----5----5--7--7/9---7--5--|-----5-----9--7~----5----5--7--7/9~--| x2
G#||--3-------------------7--------------------|--7-------------------7--------------|
D#||-------------------------------------------|-------------------------------------|


Guitar 2:
D#||------------------------------------------------|
A#||------------------------------------------------|
F#||---7~---7---7-7~---7---7-7~---7~---7-7~--7777---|
C#||---5~---5---5-5~---5---5-5~---5~---5-5~--5555---|
G#||---3~---3---3-3~---3---3-3~---3~---3-3~--3333---|
D#||------------------------------------------------|


D#||-------------------------------------------------|
A#||-------------------------------------------------|
F#||-------------------------------------------------|
C#||---2~---2---2-2~---2---2-2~---2~---2-2~---2222---| x2
G#||---2~---2---2-2~---2---2-2~---2~---2-2~---2222---|
D#||---0~---0---0-0~---0---0-0~---0~---0-0~---0000---|


Guitar 3:
D#||-1212-00-1212-00-1212-00-1212-00-1212-00-1212-00--|
A#||--------------------------------------------------|
F#||--------------------------------------------------|
C#||--------------------------------------------------|
G#||--------------------------------------------------|
D#||--------------------------------------------------|



D#||-1414-00-1414-00-1414-00-1515-00-1515-00-1515-00--|
A#||--------------------------------------------------|
F#||--------------------------------------------------|
C#||--------------------------------------------------| x4
G#||--------------------------------------------------|
D#||--------------------------------------------------|




Guitar 1:
D#||--12~--\---7~--/---10~--\---5~--/---7~--/---10~--\---0~--|
A#||---------------------------------------------------------|
F#||---------------------------------------------------------|
C#||---------------------------------------------------------|
G#||---------------------------------------------------------|
D#||---------------------------------------------------------|


D#||--12~--\---7~--/---10~--\---5~--/---7~----10--12~--|
A#||---------------------------------------------------|
F#||---------------------------------------------------|
C#||---------------------------------------------------|
G#||---------------------------------------------------|
D#||---------------------------------------------------|


D#||-1212-00-1212-00-1212-00-1212-00-1212--|
A#||---------------------------------------|
F#||---------------------------------------|
C#||---------------------------------------|
G#||---------------------------------------|
D#||---------------------------------------|


Guitar 2:
D#||-------------------------------------------|-------------------------------------|
A#||-------------------------------------------|-------------------------------------|
F#||--------7----------------------------------|--------7----------------------------|
C#||-----5-----9--7~----5----5--7--7/9---7--5--|-----5-----9--7~----5----5--7--7/9~--| x2
G#||--3-------------------7--------------------|--7-------------------7--------------|
D#||-------------------------------------------|-------------------------------------|



Instrumental / Outro
Guitar 1:
D#||-1212-00-1212-00-1212-00-1212-00-1212-00-1212-00--|
A#||--------------------------------------------------|
F#||--------------------------------------------------|
C#||--------------------------------------------------|
G#||--------------------------------------------------|
D#||--------------------------------------------------|



D#||-1414-00-1414-00-1414-00-1515-00-1515-00-1515-00--|
A#||--------------------------------------------------|
F#||--------------------------------------------------|
C#||--------------------------------------------------| x4
G#||--------------------------------------------------|
D#||--------------------------------------------------|


D#||--12~--|
A#||-------|
F#||-------|
C#||-------|
G#||-------|
D#||-------|


Guitar 2:
D#||--12~--\---7~--/---10~--\---5~--/---7~--|
A#||----------------------------------------|
F#||----------------------------------------|
C#||----------------------------------------|
G#||----------------------------------------|
D#||----------------------------------------|




Tablature Legend
----------------
 h   hammer-on
 p   pull-off
 b   bend
 pb  pre-bend
 r   release bend
 ~   hold / vibrato
 .   palm mute
 /   slide up
 \   slide down
 *   pinch harmonic
 '   natural harmonic
 x   mute note
 T   tap
comments
We did not receive enough feedback on this tab! Please rate:
1 2 3 4 5
I want to post or [tab]
guest
You may want to rate the tab now too:
select rating
Please do not post tabs as comments. Select "correction" instead!